Enviar cifraEntrar

Borboletas

Victor e Leo

Cifra: Solo
exibições 331.291
Tom: D
(sem capotraste)


E|-------------------------------5----------
B|---------------------------------3h5-3-3--
G|------6h7p6------------6h7p6/4------------
D|----9-------9--------9--------------------
A|-7h9----------9--7h9----------------------
E|------------------------------------------


E|-----------------------------------
B|-----------------------------------
G|-----------------------------------
D|--7-9-9-7--9-7---9--9-7---9-9-7----
A|-9-------9-----9--------9------9---
E|-----------------------------------


E|----------------------------------
B|----------------------------------
G|----------------------------------
D|---7-7-4--7-4---7--7-4---7-7-4----
A|--------7-----7--------7------7---
E|----------------------------------


E|----------------------------------
B|----------------------------------
G|---7-7-6--7-6---7--7-6---7-7-6----
D|--------7-----7--------7------7---
A|----------------------------------
E|----------------------------------


E|-------------
B|-------------
G|-------------
D|-9--9-7-9-7--
A|-9--9-7-9-7--
E|-------------


E|---3-3-3----0-0-0---2-2-2----
B|---3-3-3----2-2-2---2-3-2----
G|---0-0-0--2-2-2-2---4-4-4----
D|-0-0-0-0--2-2-2-2---4-4-4----
A|-2--------0-------2----------
E|-3---------------------------


    Bm                      D
Percebo que o tempo já não passa
                       A     Bm
Você diz que não tem graça amar assim
     Bm                    D
Foi tudo tão bonito, mas voou pro infinito
     A             Bm
Parecido com borboletas de um jardim


E|-------------
B|-------------
G|---6h7p6---4-
D|-7-------7---
A|-------------
E|-------------


Em          G
Agora você volta
     D                         A
E balança o que eu sentia por outro alguém
Em                   G
Dividido entre dois mundos
                A                       Bm
Sei que estou amando mas ainda não sei quem...

(refrão)
                G           D
     Não sei dizer o que mudou
          A           Bm
     Mas nada está igual
           G                D           A            Bm
     Numa noite estranha a gente se estranha e fica mal
        G           D       A              Bm
     Você tenta provar que tudo em nós morreu
           G            D
     Borboletas sempre voltam
          A             Bm
     E o seu jardim sou eu.

(solo) Bm  D  A  F#  G  A  Bm


E|-14-14-14--15-15-15--14-14-14-14-14-14--15-15-14-14--
B|-15-15-15--15-15-15--15-15-15-15-15-15--15-15-15-15--
G|-----------------------------------------------------
D|-----------------------------------------------------
A|-----------------------------------------------------
E|-----------------------------------------------------


E|-14-14-14--15-15-15--14-14-14-14-14-14--15-15-14-14--
B|-15-15-15--15-15-15--15-15-15-15-15-15--15-15-15-15--
G|-----------------------------------------------------
D|-----------------------------------------------------
A|-----------------------------------------------------
E|-----------------------------------------------------


E|-14-14-14--15-15-15--14-14-14-14-14-14/12--12-12-12/9---9--9--
B|-15-15-15--15-15-15--15-15-15-15-15-15/14--14-14-14/10--10-10-
G|--------------------------------------------------------------
D|--------------------------------------------------------------
A|--------------------------------------------------------------
E|--------------------------------------------------------------


E|-------------
B|-------------
G|-------------
D|-9--9-7-9-7--
A|-9--9-7-9-7--
E|-------------


E|---3-3-3----0-0-0---2-2-2----
B|---3-3-3----2-2-2---2-3-2----
G|---0-0-0--2-2-2-2---4-4-4----
D|-0-0-0-0--2-2-2-2---4-4-4----
A|-2--------0-------2----------
E|-3---------------------------


(repete tudo)
(refrão 2x)
G            D
     sempre voltam
     A             Bm
E o seu jardim sou eu.

(final)

E|-14-14-14--15-15-15--14-14-14-14-14-14--15-15-14-14--14
B|-15-15-15--15-15-15--15-15-15-15-15-15--15-15-15-15--15
G|-------------------------------------------------------
D|-------------------------------------------------------
A|-------------------------------------------------------
E|-------------------------------------------------------
  • 1
  • 2
  • 3
  • 4
  • 5
  • 6
  • 7
  • 8
  • 9
  • 10
  • 11
  • 12
    Acordes para:
      Composição: Victor ChavesColaboração e revisão:
      • robinho
      • Marcos Dias

      0 comentários

        mostrar mais comentários
        00:00 / 00:00
        outros vídeos desta música
        repetirqualidadeautomática
        • automática
        Outro vídeos desta música
          Capítulos
          • Início
          • Acordes da introdução
          • Tocando solo da introdução
          • Ensinando solo da introdução (Primeira parte)
          • Ensinando solo da introdução (Segunda parte)
          • Tocando segunda parte do solo da introdução
          • Ensinando solo da introdução (Terceira parte)
          • Tocando terceira parte do solo da introdução
          • Ensinando solo da introdução (Quarta parte)
          • Tocando quarta parte do solo da introdução
          • Ensinando solo da introdução (Quinta parte)
          • Tocando quinta parte do solo da introdução
          • Ensinando solo da introdução (Sexta parte)
          • Tocando sexta parte do solo da introdução
          • Acordes da base do solo
          • Tocando solo do meio da música
          • Ensinando solo do meio da música
          • Encerramento
          00:00 / 00:00
          automática
          • automática
          fecharplay/pause subir/descer velocidade
            acordes
            fechar
            OK
            Feedback