Cifra Club

Chuva de Bruxaria

Victor e Leo

Cifra: Principal (violão e guitarra)
exibições 655.526
Tom: E
Intro:                  C  G/B  Am7  Am7/G  F  F  G
E|--------------------------------------------|
B|--------------------------------------------|
G|--------------------------------------------|
D|----------0-2-------------------------------|
A|----0-2-3-----3-----------------------------|
E|--3-----------------------------------------|

                  C  G/B  Am7  Am7/G  F  F  G
E|--------------------------------------------|
B|--------------------------------------------|
G|--------------------------------------------|
D|----------0-2-------------------------------|
A|----0-2-3-----3-----------------------------|
E|--3-----------------------------------------|

C        G/B       Am       F
Azuis, vermelhas, brancas flores
C           F     Dm          G
Pintando o cerro dos meus olhares
C       G/B      Am      F
Fossem linda garôa em cores
C           F     Dm         G
Molhando a tarde de ares solares
C        G
Chamam você, bem
 E       Am
Não fique aí
     E         F          G       C  C (abafado)
Vem molhar meu beijo, te beijo também

Refrão:
F                         C
Maga magia de lua luzia a noite virando dia
F                         C
Água na boca secando na louca chuva de bruxaria
G         C
Hoje você vem, dizia
G         C
Hoje você vem, dizia

                  C  G/B  Am7  Am7/G  F  F  G  C  G/B  Am7  Am7/G  F  F  G
E|-------------------------------------------------------------------------|
B|-------------------------------------------------------------------------|
G|-------------------------------------------------------------------------|
D|------------2------------------------------------------------------------|
A|------2-3-5---3----------------------------------------------------------|
E|--3-5--------------------------------------------------------------------|


C       G/B   Am     F
De cada ponta de folhagem
C        F    Dm          G
Cai uma gota dos nossos banhos
C       G/B   Am     F
Fada, samambaia, miragem
C        F        Dm         G
Doces varandas, sonhos estranhos
C       G      E      Am
O que a beleza puser na mesa
 E         F       G      C   C (abafado)
Beba sem medo, vem da natureza

Refrão:
F                         C
Maga magia de lua luzia a noite virando dia
F                         C
Água na boca secando na louca chuva de bruxaria
G         C
Hoje você vem, dizia
G         C
Hoje você vem, dizia
F                         C
Maga magia de lua luzia a noite virando dia
F                         C
Água na boca secando na louca chuva de bruxaria
G         C
Hoje você vem, dizia

Hoje você vem, dizia

E|----------------3---------------------------|
B|----------------3---------------------------|
G|----------------0---------------------------|
D|----------0-2---0---------------------------|
A|----0-2-3-----3-2---------------------------|
E|--3-------------3---------------------------|
Acordes para:

    0 comentários

      mostrar mais comentários

      Conseguiu tocar?

      16tocaram1ainda não

      Grave um vídeo tocando Chuva de Bruxaria e mande pra gente!

      00:00 / 00:00
      outros vídeos desta música
      repetirqualidadeAutomático
      Outro vídeos desta música
        00:00 / 00:00
        OK