Notificações Amigos pendentes

      Victor e Leo

      Fada

      2.107.063 exibições
      Tom: A
      (intro 2x) A F#m
      ( usa-se bastante dedilhados na música, tenha como base o solo )
      
       A             F#m   A             F#m
      Fada, fada querida, dona da minha vida
         E                      F#m    E
      Você se foi, levou meu calor, você se foi, mas não me
         F#m      E
      levooooou
      
      
      E|-------------------------|
      B|-------12----------------|
      G|-11h13---13-11-9-11------|
      D|--------------------7----|
      A|-------------------------|
      E|-------------------------|
      
      
      (riff)
      
      E|--9--9---12/12-12-
      B|--10-10--12/14-14-
      
      
       A             F#m   A                 F#m
      Lua, lua de encanto, ouça pra quem eu canto
       E                F#m      E                F#m      (riff)
      Ela levou minha magia, mas ela é minha alegria
       D                    E             A
      Vejo uma luz, uma estrela brilhar, sinto um cheiro de
          F#m
      perfume no ar
       D                     E                 D
      Vejo minha fada e sua vara de condão, tocando meu
      E    A
      coração
      
      (solo 1)
      
      E|--9--9--9---7-7-7---5-5-5---------
      B|--10-10-10--9-9-9---7-7-7---------
      
      
       A                     F#m
      Madrugada de amor que não vai acabar
       A                         F#m
      Se estou sonhando, não quero mais acordar
       D                         E          A
      Minha história linda, meu conto de amor
      ( E )
      A                             F#m
      Algo aqui me diz que essa paixão não é em vão
      A                       F#m
      O meu sentimento é bem mais que uma emoção
      D                       E         D    E   A
      Eu espero o tempo que for, minha fada do amor
      
      (solo 2) A F#m A F#m D E D E A E
      
      
      E|-5-5-3-3--5-5-7-9--7-5------9--9--9--9/10-/12-12-10-9----|
      B|-7-7-5-5--7-7-9-11-9-7------10-10-10-10/12-/14-14-12-10--|
      G|---------------------------------------------------------|
      D|---------------------------------------------------------|
      A|---------------------------------------------------------|
      E|---------------------------------------------------------|
      
      
      E|-17-17-17-17-17---16-16-16-16-16-----------9---7--4/5---------------------------|
      B|-19-19-19-19-19---17-17-17-17-17--------7/9-------------------------------------|
      G|---------------------------------------------7--6-----6/7-7-7/9------2-1--------|
      D|------------------------------------------------------------------0h2---2-2/4---|
      A|--------------------------------------------------------------------------------|
      E|--------------------------------------------------------------------------------|
      
      
      (volta)
        D
      "Vejo uma luz..."
      
      (refrão 2x)
        Composição: Victor ChavesColaboração e revisão:
        • Pablo_Malakian
        • jaum!.
        • barata
        • Victor Gimenes
        • +4

        Comentários 14

        140 .
        • brian.gabriel.714 brian.gabriel.714: Em 04/02/2014 18:39

          qual o ritmo

        • milevitor milevitor: Em 02/08/2012 18:25

          Muito fácil !

        • juniorrodrigues juniorrodrigues: Em 06/11/2011 08:47

          da pa faze sem capo?

        • brunnopaiiva brunnopaiiva: Em 27/07/2011 23:03

          Eu já cliquei em não consegui tocar mesmo conseguindo, sa como é ne? Curiosidade

        • brunnopaiiva brunnopaiiva: Em 27/07/2011 23:02

          A lemde f ác il muito bonita. Obrigado Cifra club!

        • lucas_leonardo lucas_leonardo: Em 19/07/2011 23:14

          Porra essa musica e a mais facil de todas.

        • cru1zz cru1zz: Em 28/05/2011 09:28

          q facil pensei q era mais dificil

        • luan_rodrigo luan_rodrigo: Em 22/05/2011 16:39

          Quem é o louco que vai clicar em ''ainda não consegui tocar''?!? podem naum conseguir mais ninguem clica ali...

          • silva silva: Em 22/11/2011 23:36

            Eu cliquei em ´´Nao consegui tocar`` mais eu consegui só cliquei porque vc falou pra nao clicar shuashuashua LOOL

        140 cancelar
        0:00 / 0:00
        2 versões de baixo exibições contribuição e correção
        2 versões de Guitar Proformatodownloadscontribuição
        play/pausefechar subir/descer velocidade
        6ª corda E5ª corda A4ª corda D3ª corda G2ª corda B1ª corda E
          acordes
          publicidade
          fechar
          ok