Notificações Amigos pendentes

      Victor e Leo

      Fada

      22.423 exibições
      Tom: A (com acordes na forma de G) Capotraste na 2ª casa
      Na música os dois violões tocam com capotraste na 2ª casa, mas pode-se tocar ela sem a braçadeira
      aumentando 1 tom.
      
      Violão 1 fica com o dedilhado da introdução até a parte: "vejo uma luz uma estrela..."
      violão 2 faz o ritmo de toda a música e os solinhos da 1ª parte. Violão 1 faz somente o solo do
      meio da música.
      
      Introdução com capotraste:
      
         G               Em
      e|-------------------------------------|
      B|-0-----------0-------0-------0-------|
      G|---0-----------0-------0-------0-----| 2
      D|------0-0--------4-------4-------4---| x
      A|-------------------------------------|
      E|-------------------------------------|
      
      
      Introdução sem capotraste:
      
         A             F#m
      e|------------------------------|
      B|-2--------2---------2-----2-2-|
      G|-2--------2---------2-----2-2-| 2
      D|----2-2------2-4----4-----4-4-| x
      A|-0------0---------------------|
      E|-----------------2----2-2-----|
      
      
       G             Em    G             Em
      Fada, fada querida, Dona da minha vida
         D                      Em     D                       Em  D 
      Você se foi, levou meu calor, você se foi, mas não me levou.. (RIFF 2)
      
      (RIFF 2)
      
        D
      e|------------------|
      B|------10----------|
      G|-9h11-----9p7-----|
      D|--------------9-7-|
      A|------------------|
      E|------------------|
      
      
       G              Em   G                 Em (RIFF 3)
      Lua, lua de encanto, ouça pra quem eu canto
        D                Em (RIFF 4)       D               Em  D  
      Ela levou minha magia,          mas ela é minha alegria...
      
      (RIFF 3)               (RIFF 4)
      
      e|-/9-9-9--/12-12-12-| e|-----------|
      B|-/9-9-9--/12-12-12-| B|-----------|
      G|-------------------| G|-----------|
      D|-------------------| D|-----4/6-4-|
      A|-------------------| A|-2h4-------|
      E|-------------------| E|-----------|
      
      
       C                    D             G                     Em
      Vejo uma luz, uma estrela brilhar, sinto um cheiro de perfume no ar
       C                     D                 C         D   G  (RIFF 5)
      Vejo minha fada e sua vara de condão, tocando meu coração
      
      (RIFF 5)
      
      e|-9-9-9--7-7-7--5-5-5-|
      B|-x-x-x--x-x-x--x-x-x-|
      G|-9-9-9--7-7-7--6-6-6-|
      D|---------------------|
      A|---------------------|
      E|---------------------|
      
      
       G                     Em  
      Madrugada de amor que não vai acabar
       G                         Em
      Se estou sonhando, não quero mais acordar
       C                         D         G    (RIFF 6)
      Minha história linda, meu conto de amor...
      
      (RIFF 6)
      
      e|-5-7-9~~-|
      B|---------|
      G|-6-7-9~~-|
      D|---------|
      A|---------|
      E|---------|
      
      
      G                             Em
      Algo aqui me diz que essa paixão não é em vão
      G                       Em
      O meu sentimento é bem mais que uma emoção
      C                      D          C    D   G
      Eu espero o tempo que for, minha fada do amor
      
      
      Solo:      G              Em     G           Em       C           D
      e|-----5---5~~------5/7--7-/9-7-5~~--9-9-10-/12-12-10-9~~--17-17-17~~--16-16-16/-|
      B|-5/7---7-----5/7---------------------------------------------------------------|
      G|-------------------------------------------------------------------------------|
      D|-------------------------------------------------------------------------------|
      A|-------------------------------------------------------------------------------|
      E|-------------------------------------------------------------------------------|
      
      
            C     D     G         D              C
      e|----9-----7-----5--------------------------|
      B|-------------------------------------------|
      G|-/9----/7----/6-----6-7-7/9~~--------------|
      D|---------------------------------7-6-------|
      A|-------------------------------7-----7-7/9-|
      E|-------------------------------------------|
      
      
       C                    D             G                     Em
      Vejo uma luz, uma estrela brilhar, sinto um cheiro de perfume no ar
       C                     D                 C         D   G  (RIFF 5)
      Vejo minha fada e sua vara de condão, tocando meu coração
      
      (RIFF 5)
      
      e|-9-9-9--7-7-7--5-5-5-|
      B|-x-x-x--x-x-x--x-x-x-|
      G|-9-9-9--7-7-7--6-6-6-|
      D|---------------------|
      A|---------------------|
      E|---------------------|
      
      
       G                     Em  
      Madrugada de amor que não vai acabar
       G                         Em
      Se estou sonhando, não quero mais acordar
       C                         D         G   D (RIFF 6)
      Minha história linda, meu conto de amor...
      
      (RIFF 6)
      
      e|-5-7-9~~-|
      B|---------|
      G|-6-7-9~~-|
      D|---------|
      A|---------|
      E|---------|
      
      
      G                             Em
      Algo aqui me diz que essa paixão não é em vão
      G                       Em
      O meu sentimento é bem mais que uma emoção
      C                      D          C    D   G   D
      Eu espero o tempo que for, minha fada do amor
      
       G                     Em  
      Madrugada de amor que não vai acabar
       G                         Em
      Se estou sonhando, não quero mais acordar
       C                         D         G   
      Minha história linda, meu conto de amor...
      
      G                             Em
      Algo aqui me diz que essa paixão não é em vão
      G                       Em
      O meu sentimento é bem mais que uma emoção
      C                      D          C    D   G    Em (RIFF 7)
      Eu espero o tempo que for, minha fada do amor
      
      (RIFF 7)
      e|-5-7-5-|
      B|-------|
      G|-6-7-6-|
      D|-------|
      A|-------|
      E|-------|
      
          C                      D          C        D   G (RIFF 8)
          Eu espero o tempo que for, minha fada do amor...
      
      (RIFF 8)
      
      e|-5-4-----|
      B|-5-5-5-5-|
      G|-----6-6-|
      D|-------7-|
      A|-------0-|
      E|---------|
      
        Composição: Victor ChavesColaboração e revisão:
        • Luiz 7

        Comentários 0

        140 .
        140 cancelar
        0:00 / 0:00
        Esta versão de cifra não é usada na videoaula. Exiba a cifra correta.
        2 versões de baixo exibições contribuição e correção
        2 versões de Guitar Proformatodownloadscontribuição
        play/pausefechar subir/descer velocidade
        6ª corda E5ª corda A4ª corda D3ª corda G2ª corda B1ª corda E
          acordes
          publicidade
          fechar
          ok