Lembranças de Amor

Victor e Leo

Composição de: Victor Chaves
tom: C
(capo 2ª casa)

(intro)  C   Am  C  Am  G


E|------------------------------------------------------------------------|
B|----7/10-----10\7-----7/5---5----5/7------------------------------------|
G|------------------------------------------------------------------------|
D|------------------------------------------------------------------------|
A|------------------------------------------------------------------------|
E|------------------------------------------------------------------------|

E|------------------------------------------------------------------------|
B|----7/10-----10\7-----7\5--------3-----5--3-----------------------------|
G|---------------------------2h4---------------4--------------------------|
D|------------------------------------------------------------------------|
A|------------------------------------------------------------------------|
E|------------------------------------------------------------------------|

E|------------------------------------------------------------------------|
B|--3--3------------------------------------------------------------------|
G|--------4--4---0--0-----------------------------------------------------|
D|----------------------4--4/7--------------------------------------------|
A|------------------------------------------------------------------------|
E|------------------------------------------------------------------------|

E|------------------------------------------------------------------------|
B|--3--3------------------------------------------------------------------|
G|--------4--4---0--0-----------------------------------------------------|
D|----------------------4--4/9--------------------------------------------|
A|------------------------------------------------------------------------|
E|------------------------------------------------------------------------|

  Am
Tienes razón
 F
Que las palabras no resuelven muchas cosas
     C               G
Pero es lo mejor, debemos conversar

 Am      F
Al final, nuestro caso no es distinto de otros casos
       C          G  G4  G
Que acabaron mal y debo confesar
    F                   G G4
Aunque sufrido ya, las noches que no estés
        C G7
Sufriré aún más.

  C                         Dm
Necesito urgente que tú sepas de mis sentimientos
 G                           Am
Llego a casa no te veo y tengo ganas de salir corriendo
  C                           Dm
Siento que la soledad y el silencio me abrazan
 F                 G            Am
Mi alegría pasó, solo el recuerdo de amor, no pasa.

(solo - diferente do primeiro solo)

C Am C Am G

E|------------------------------------------------------------------------|
B|----7/10-----10\7-----7/5---5----5/7------------------------------------|
G|------------------------------------------------------------------------|
D|------------------------------------------------------------------------|
A|------------------------------------------------------------------------|
E|------------------------------------------------------------------------|

E|------------------------------------------------------------------------|
B|----7/10-----10\7-----7\5--------3---3h5--3-----------------------------|
G|---------------------------2h4---------------4--------------------------|
D|------------------------------------------------------------------------|
A|------------------------------------------------------------------------|
E|------------------------------------------------------------------------|

E|------------------------------------------------------------------------|
B|--3--3------------------------------------------------------------------|
G|--------4--4---0--0-----------------------------------------------------|
D|----------------------4--4/5---5--7--9--7-------------------------------|
A|------------------------------------------------------------------------|
E|------------------------------------------------------------------------|

E|------------------------------------------------------------------------|
B|--3--3------------------------------------------------------------------|
G|--------4--4---0--0------------0--4--4/6--------------------------------|
D|----------------------0--4--0-------------------------------------------|
A|------------------------------------------------------------------------|
E|------------------------------------------------------------------------|

 Am        F
Al final, nuestro caso no es distinto de otros casos
       C          G
Que acabaron mal y debo confesar
 F                        G G4
Que aunque sufrido ya, las noches que no estés
          C G7
Sufriré aún más.

  C                         Dm
Necesito urgente que tú sepas de mis sentimientos
 G                             Am
Llego a casa no te veo y tengo ganas de salir corriendo
  C                           Dm
Siento que la soledad y el silencio me abrazan
 F                       G     Am  Em
Mi alegría pasó, solo el recuerdo de amor, no pasa
F                       G      Am
Mi alegría pasó, solo el recuerdo de amor, no pasa
Página 1 / 1

Letras e título
Acordes e artista

resetar configurações
OK