Cifra Club

Momentos

Victor e Leo

Cifra: Principal (violão e guitarra)
tom: A (forma dos acordes no tom de G) Capotraste na 2ª casa
[Intro] G  C/G  C/G  G  G  C/G

      G
Há momentos inevitáveis 
                                C
Que o coração da gente pede respostas 
         D
É nessa hora 
                                       G     D
Que a gente diz que não entende a vida e chora 
               G
Se a gente soubesse 

O quanto merece cada um 
       C
O que cada um tem 
         D
A gente nada pediria 
        C
Simplesmente o bem faria 
        G       G7
Para merecer o bem 
C                          D
Eu, que sempre tive o que dizer 
                 G
Hoje, ouço em silêncio 
                   C
Levei tempo pra entender 
          Am
Que só o tempo 
          D                  C    G
Apenas o tempo nos ensina a viver

E|---------------------------------------|--------------------------------------------------------|
B|------------------------------------3--|------5---3---1-2-3—2-1------------------------------0--|
G|-----------------------0-2-2/4-2/4-----|--2/4---4---4------------4-2-0---------0--0p1--0-----0--|
D|----------------0-0p2------------------|-----------------------------------0-0p2--0p2--0---2----|
A|---------0-0p2-------------------------|--------------------------------3-----------------------|
E|--3-0p3--------------------------------|--------------------------------------------------------|

E|---------------------------------------------------|-------------------------------|
B|-------------------------------5-------------------|----1-2-3-2-1---------------3--|
G|------0-2-2/4-2-0-0p2----0-2/4---2-0---------------|--4-----------4-3-2-0-------3--|
D|--0p2-----------------0---------------2-0-0p2-2/5--|----------------------2p0---2--|
A|---------------------------------------------------|----------------------------3--|
E|---------------------------------------------------|-------------------------------|

E|--10---8--8--8--7-7-7--3--------3--3-3—1—0-------|--------------------------|
B|--12--10-10-10--9-9-9--5--5-3/5----5-5—3—1-------|--------------------------|
G|----------------------------------------------0--|-------0-2-2/4-2-0-0p2----|
D|--------------------------------------------0p2--|--0p2------------------0--|
A|-------------------------------------------------|--------------------------|
E|-------------------------------------------------|--------------------------|

E|----------------------------|----------------------------------|
B|---------5------------------|-----1-2-3-2-1-----------------3--|
G|--0-2/4----2-0-----------0--|--4-------------4-3-2-0--------3--|
D|-----------------2-0-0-2----|-------------------------2p0---2--|
A|----------------------------|-------------------------------3--|
E|----------------------------|----------------------------------|

               G
Se a gente soubesse 

O quanto merece cada um 
       C
O que cada um tem 
         D
A gente nada pediria 
        C
Simplesmente o bem faria 
        G       G7
Para merecer o bem 
C                          D
Eu, que sempre tive o que dizer 
                 G
Hoje, ouço em silêncio 
                   C
Levei tempo pra entender 
          Am
Que só o tempo 
          D                  C    G
Apenas o tempo nos ensina a viver

C                          D
Eu, que sempre tive o que dizer 
                 G
Hoje, ouço em silêncio 
                   C
Levei tempo pra entender 
          Am
Que só o tempo 
          D                  C    G
Apenas o tempo nos ensina a viver

      Am
Só o tempo 
          D                  C    G
Apenas o tempo nos ensina a viver
00:00 / 00:00
Outros vídeos desta música
Repetir
Outros vídeos desta música
Composição de Victor Chaves
Colaboração e revisão:
83.527 exibições
    • ½ Tom
    • A
    • Bb
    • B
    • C
    • Db
    • D
    • Eb
    • E
    • F
    • F#
    • G
    • Ab
  • Adicionar à lista

    0 comentários

    Ver todos os comentários

    Conseguiu tocar?

    15 Tocaram 2 Ainda não

    Grave um vídeo tocando Momentos e nos envie!

    Entre para oCifra Club PRO

    Tenha acesso a benefícios exclusivos no App e no Site

    • Chega de anúncios

    • Prioridade de compra em lançamentos

    • Mais recursos no app do Afinador

    • Atendimento Prioritário

    • Descontos nos produtos Cifra Club

    • Ajude a produzir mais conteúdo

    00:00 / 00:00

    Cifra Club Pro

    Aproveite o Cifra Club com benefícios exclusivos e sem anúncios
    Cifra Club Pro
    Aproveite o Cifra Club com benefícios exclusivos e sem anúncios
    OK