Cifra Club

Muito Natural

Victor e Leo

Cifra: Principal
exibições 85.381
Tom: C
Intro: Em  Dm/F#  G  C Em Dm/F#

(Em   Dm/F#   G    G7    C   Dm/F#)
Milhas distante de mim
Em   Dm/F#   G
Fui te encontrar
G7 C Dm/F#
Mas é sempre assim

Em Dm/F# G    G7 C Dm/F#)
Quando menos se espera
As coisas chegam livres

 D D4 D
O amor é assim

G       C9     G         D
E transforma tudo em alto astral
E|9--9/7--7--7--5--7/9

G           C9    G      Dm/F#
E o mundo floresce no quintal
E|----------7--7/9
B|--7/9--10-------

G          C9      G    D
Viver nos parece genial

G              C9  D
Ser feliz fica muito natural
E|--7/9--9--9--7--9--9/10--9--7--5-5


( Em  D/F#  G  C Em D/F# ) (2x)

(solo) F G Em C  Bm  Em D/F#
E|-------------------------------------------------------------------5-
B|----3-3--------3--5-------5-5-----5--7-----3h2------5h2--------------
G|-2h4-----2h4h2-----2---4/6----4h6------2-------3-3--6h2--6-6---4/6---
D|----------------------------------------------------5h2--------------
A|---------------------------------------------------------------------
E|---------------------------------------------------------------------

(repete tudo)

(repete refrão)
Acordes para:
    Colaboração e revisão:

    0 comentários

      mostrar mais comentários

      Conseguiu tocar?

      8tocaram0ainda não

      Grave um vídeo tocando Muito Natural e mande pra gente!

      00:00 / 00:00
      outros vídeos desta música
      repetirqualidadeautomática
      Outro vídeos desta música
        00:00 / 00:00
        automática
        OK