Cifra Club

Não Me Perdoei / Quando Você Some / Nada Normal / Não Precisa / Lembranças de Amor (Medley)

Victor e Leo

Cifra: Principal (violão e guitarra)
tom: E (forma dos acordes no tom de D) Capotraste na 2ª casa
[Intro]
            Am           Em           G             Am
E|---0------0-|---0------0-|---0------1-|-----------0-|
B|-3---3----1-|-3---3----0-|-3---3----0-|--------0--1-|
G|-------0--2-|-------0--0-|-------0--0-|-----0-----2-|
D|----------2-|----------2-|----------0-|-0h2-------2-|
A|----------0-|----------2-|----------1-|-----------0-|
E|------------|----------0-|----------2-|-------------|

                 Em   G
Eu queria ser um anjo
                    F         G  Am
E não passo apenas do que sou
                       Em  G
Te daria um par de estrelas

                   F          Dm
E o que tenho é o meu amor

                     F   G
Eu só sei sonhar contigo
                    Am    F
Aceitando o meu regresso
                  C
Tenho medo de perdê-la
            G
Te amo, confesso

                 Am
Aonde estão seus olhos
                     F
Quando não estão em mim
                  C
Aonde estão seus passos
                G
Se não chegamos ao fim
         Am              F
Eu voltaria aonde te deixei
                   C             G
Não queria que chorasse, chorei
                   Dm               Am
Queria que me perdoasse Não me perdoei

( Am  Em  G  Am )

[Solo] F  C  G  Am  F  C  G  Am

                 Am
Aonde estão seus olhos
                     F
Quando não estão em mim
                  C
Aonde estão seus passos
                G
Se não chegamos ao fim
         Am              F
Eu voltaria aonde te deixei
                   C             G
Não queria que chorasse, chorei
                   Dm               G
Queria que me perdoasse Não me perdoei

                     C
Preciso te olhar nos olhos
                Am  A9  Am
E sem chorar dizer
  G   C/G  G
Adeus
                       C
Mas quando você chega perto
                Am
Meus olhos e palavras
              D   D9  D
Não são mais meus

           C          D   D9  D
Preciso dizer que preciso
    G                       C
Sentir verdade no que você diz e faz
              Am   A9  Am
Ou me leve a sério
         C
Ou vá embora
             G   C/G  G
E não volte mais

           C          D   D9  D
Preciso dizer que preciso
    G                       C
Sentir verdade no que você diz e faz
              Am   A9  Am
Ou me leve a sério
         C
Ou vá embora
             G   C/G  G
E não volte mais

E|----------------------------------|
B|--0h1h0-------------0h1p0---------|
G|--------0------0-2--------0---0-0-|
D|-----------Oh2-------------0h0----|
A|----------------------------------|
E|----------------------------------|

                  G
Lareira pra acender
                  C G/B
Um céu pra se olhar

Am                          D
E tudo está tranquilo por aqui
               G
Você vai me vencer
                Am
Eu vou me apaixonar
D               G      C
Não há mais o que decidir

Am   D    G
Iiieee

                C                         D
Os nossos lábios todas as palavras nada dizem
             G                             C
Aos nossos olhos tudo o que já vimos foi vertigem
       G/B    Am
É tudo tão real
D             G          G7
Mas nada normal
                    C                         D
Te lembro e já me sinto ao seu lado, no seu mundo
                   G                       C
Me identifico com você de um jeito tão profundo
         G/B   Am
E é tudo tão real
D            G
Mas nada normal

G                     D
 Você diz que não precisa
C                Em
 Viver sonhando tanto
              C     G          D
Que vivo a fazer demais por você
                D
Diz que não precisa
C                Em
 a cada vez que canto
        C     G          D
Uma canção a mais pra você

                   C
Mas tem que ser assim

                G
Pra ser de coração
                 D         Em
Não diga não precisa ah ah ah
               C
Tem que ser assim
               G
É seu meu coração
                 D          G
Não diga não precisa  ah ah ah

E|--5-5------------------5-5---------------------------------------|
B|------7-7-5-5-3-5/7--------7-7-5-5-3-3/5--3-----3-3--------------|
G|--------------------------------------------4-------4-4--2-2---2-|
D|-------------------------------------------------------------4---|
A|-----------------------------------------------------------------|
E|-----------------------------------------------------------------|
                    G           A
E|---------------------------------------------------------------|
B|--3-3----------------------------------------------------------|
G|-----4-4-2-2--2/4------2-4-4/6---------------------------------|
D|------------4-------4------------------------------------------|
A|---------------------------------------------------------------|
E|---------------------------------------------------------------|

Am7    F
Veja só
Sei que palavras não consertam nada mais
            C
Eu acho que é melhor
         G
A gente conversar

Am7     F
Afinal
Nosso caso não difere de outros casos
        C
Que acabaram mal

        G
Só pra te lembrar

          F                         G
Eu já sofri demais, mas longe de você
              C   G4
Sofrerei bem maaa-ais

    C
Preciso te dizer o que acontece
              Dm7
Com meu sentimento

          G
Chego em casa e não te vejo
                          Am7
Meu desejo é te ligar correndo
   C
E pouco a pouco a solidão e
                 Dm7
O silêncio me abraçam
           F
Minha alegria passou
           G                        Am7  C
Só as lembranças de amor... não passam
00:00 / 00:00
Outros vídeos desta música
Repetir
Outros vídeos desta música
Composição de Victor Chaves
Colaboração e revisão:
  • Odilo Fernando
5.150 exibições
    • ½ Tom
    • A
    • Bb
    • B
    • C
    • Db
    • D
    • Eb
    • E
    • F
    • F#
    • G
    • Ab
  • Adicionar à lista

    0 comentários

    Ver todos os comentários

    Conseguiu tocar?

    1 Tocaram 0 Ainda não

    Grave um vídeo tocando Não Me Perdoei / Quando Você Some / Nada Normal / Não Precisa / Lembranças de Amor (Medley) e nos envie!

    Entre para oCifra Club PRO

    Tenha acesso a benefícios exclusivos no App e no Site

    • Chega de anúncios

    • Prioridade de compra em lançamentos

    • Mais recursos no app do Afinador

    • Atendimento Prioritário

    • Descontos nos produtos Cifra Club

    • Ajude a produzir mais conteúdo

    00:00 / 00:00

    Cifra Club Pro

    Aproveite o Cifra Club com benefícios exclusivos e sem anúncios
    Cifra Club Pro
    Aproveite o Cifra Club com benefícios exclusivos e sem anúncios
    OK