Cifra Club

Retratos Rasgados

Victor e Leo

Cifra: Principal
exibições 35.372
Tom: C
Intro 2x: Am G
E|---------------|-----0---|------------|
B|---------0---1-|---1---3-|-3-3-1-0----|
G|-----2---------|-2-------|---------2--|   (2x)
D|-0h2---2---2---|---------|------------|
A|---------------|---------|------------|
E|---------------|---------|------------|


Am        C
Eu te avisei
          G
Pra não olhar pra trás
Dm          Am
É tarde de mais
Am        C
Eu te mostrei
        G
A vida dá sinais
E             F
Fez que tanto faz

F                Am
Agora julga tudo que passou
F                       E
 Pensa que sabe quem eu sou Ou ou ou ou...

Refrão 2x:
C        G
 Mentiras jogadas
Dm            F          C
Deixam marcas no meu coração
        G
Retratos Rasgados
Dm          F            Am
São pedaços soltos pelo chão

( Am  C  G  Dm ) (2x)
Ohoooooooo....
     Am   G
E|---------------------------------|
B|---------------------------------|
G|--7--7--7--7--5----7--7--7--7-5--|  (2x)
D|---------------------------------|
A|---------------------------------|
E|---------------------------------|


Am       C
Eu te falei
         G
Nem tudo é igual
Dm           Am
Pena que foi mal
          C
Eu te ensinei
         G
Tudo era natural
E            F
Tanta coisa e tal

                     Am
Às vezes acho que me deu valor
 F                   E
 Mas tudo passa acabou Ou ou ou ou...

Refrão 2x:
C        G
 Mentiras jogadas
Dm            F          C
Deixam marcas no meu coração
        G
Retratos Rasgados
Dm          F            C    (Am na 2 vez para entrar no solo)
São pedaços soltos pelo chão

Solo: Am  G (2x)
   Am                            G
E|--3--5--5--5--5--5--5--5--3-5-5br-3-3----------| 
B|--x--------------------------------------------|
G|-----------------------------------------------| 
D|-----------------------------------------------|
A|-----------------------------------------------|
E|-----------------------------------------------|
   Am              G
E|-----------------------------------------------|
B|-----------------------------------------------| 
G|------2--0--2--2/4\2--0--0---------------------|
D|------0--0--0--0-------------------------------|
A|-----------------------------------------------|
E|-----------------------------------------------|

E|---------------------------8--8---------|
B|---------------------8-10---------------|
G|-------------5--7/9---------------------|
D|--------5/7-----------------------------|
A|--3--5----------------------------------|
E|----------------------------------------|


C        G
 Mentiras jogadas
Dm            F          C
Deixam marcas no meu coração
        G
Retratos Rasgados
Dm          F            Am
São pedaços soltos pelo chão (2x)

C     G
 Ohoooooooo
Dm               Am
 Soltos pelo chão
C     G
 Ohoooooooo
Dm           Am
 Soltos pelo chão
Acordes para:

    0 comentários

      mostrar mais comentários

      Conseguiu tocar?

      11tocaram0ainda não

      Grave um vídeo tocando Retratos Rasgados e mande pra gente!

      00:00 / 00:00
      outros vídeos desta música
      repetirqualidadeautomática
      Outro vídeos desta música
        00:00 / 00:00
        automática
        OK