Cifra Club

Se Não For Amor

Victor e Leo

Cifra: Principal (violão e guitarra)
tom: A (forma dos acordes no tom de G) Capotraste na 2ª casa
Violão base (intro) 2X: G  D  Em  C

Violão solo (lick):
E|----9-----12--------9-----12--------12--------12--------12--------12----|
B|-10----10----10--10----10----10--10----10--10----10--10----10--10----10-|
G|------------------------------------------------------------------------|
D|------------------------------------------------------------------------|
A|------------------------------------------------------------------------|
E|------------------------------------------------------------------------|
PS: Esse lick se repete a música toda, exceto no solo.

G            D
Diz, como se chama
       Em           C
Esse vazio quando você
    G    D   Em  C
Não está aqui
G            D
Diz, como se chama
           Em          C
O frio que dá quando você
         G   D   Em   C   D   D4   D
Olha pra mim assim
           G
Se não for amor
              C       Am
O que for não é ilusão
              D            G
Nem tão fácil terá explicação

Se não for amor
           C
Seja o que for
        Am
Não me prive de ao menos
D   (D)      G
chamar       de paixão

Violão base: G  D  Em  C  G  D  Em  C  D

Violão solo:
E|----10-12-12-10----|----------------------|----17-19-19-17----|------10-12--|
B|-14-------------14-|-14-12-10/14-14-------|-17-------------17-|-9-11--------|
G|-------------------|----------------11-14-|-------------------|-------------|
D|-------------------|----------------------|-------------------|-------------|
A|-------------------|----------------------|-------------------|-------------|
E|-------------------|----------------------|-------------------|-------------|

G            D
Diz, como se chama
           Em          C
O frio que dá quando você
         G   D   Em   C   D   D4   D
Olha pra mim assim
           G
Se não for amor
              C       Am
O que for não é ilusão
              D            G
Nem tão fácil terá explicação

Se não for amor
           C
Seja o que for
        Am
Não me prive de ao menos
D   (D)
chamar
           G
Se não for amor
              C       Am
O que for não é ilusão
              D            G
Nem tão fácil terá explicação

Se não for amor
           C
Seja o que for
        Am
Não me prive de ao menos
D              G   C   G
chamar de paixão

(Final)

E|----9-----12----|
B|-10----10----10-|
G|----------------|
D|----------------|
A|----------------|
E|----------------|
00:00 / 00:00
Outros vídeos desta música
Repetir
Outros vídeos desta música
Composição de Victor Chaves
Colaboração e revisão:
  • Daniel Costa
  • Wallace Menon
  • Leonar
16.617 exibições
    • ½ Tom
    • A
    • Bb
    • B
    • C
    • Db
    • D
    • Eb
    • E
    • F
    • F#
    • G
    • Ab
  • Adicionar à lista

    0 comentários

    Ver todos os comentários

    Conseguiu tocar?

    5 Tocaram 0 Ainda não

    Grave um vídeo tocando Se Não For Amor e nos envie!

    Entre para oCifra Club PRO

    Tenha acesso a benefícios exclusivos no App e no Site

    • Chega de anúncios

    • Prioridade de compra em lançamentos

    • Mais recursos no app do Afinador

    • Atendimento Prioritário

    • Descontos nos produtos Cifra Club

    • Ajude a produzir mais conteúdo

    00:00 / 00:00

    Cifra Club Pro

    Aproveite o Cifra Club com benefícios exclusivos e sem anúncios
    Cifra Club Pro
    Aproveite o Cifra Club com benefícios exclusivos e sem anúncios
    OK