Cifra Club

Sexy Yemanjá

Victor e Leo

Cifra: Principal (violão e guitarra)
tom: A (forma dos acordes no tom de G) Capotraste na 2ª casa
Intro 4x: ( C  G Am  F )

C           G           Am   F
A noite  vai ter  lua cheia
C        G          Am  F
Tudo pode  acontecer
C            G        Am   F
A noite  vai ter lua cheia
C         G        Am       F
Quem eu amor vem me ver
C      G           Am
Tem a ver com  mar
          F     C
Um luar solar
    G               Am    F
É o amor que me incendeia
C    G          Am
Vou sair de mim
    F             C
Leve como o ar
 G               Am  F  G
E agradar minha sereia
F
Se ela me chamar
G
E quiser me amar
Am
Eu vou, vou vou, vou
             G     F
Vou vou vou vou, vou
F
Sexy yemanjá
G
Tudo a ver com o mar
G#            Bb       C
A noite vai ter lua cheia
  G       Am     F
A noite vai ter lua cheia
C    G       Am    F
Tudo pode acontecer
C       G           Am   F
A noite vai ter lua cheia
C      G          Am  G
Quem eu amo vem me ver

  Solo: C  G  Am  F  (2x)
E|-------0--3-3---3----3----5-----8---10p8------8--10^12-12^10--8--10p8------------|
B|-----1----------5----5----7----10---------10-------------------------10----------|
G|---0-----------------------------------------------------------------------------|
D|---------------------------------------------------------------------------------|
A|---------------------------------------------------------------------------------|
E|---------------------------------------------------------------------------------|

E|------------8----8----8---7---7---7---7/--12---12---12~---12---12---12---12---12---3---3----------------|
B|---10--8~--10---10---10---8---8---8---8/--13---13---13~---13---13---13---13---13---5---5----------------|
G|--------------------------------------------------------------------------------------------------------|
D|--------------------------------------------------------------------------------------------------------|
A|--------------------------------------------------------------------------------------------------------|
E|--------------------------------------------------------------------------------------------------------|

E|---------------------------5---17---17/------------|
B|---1---1---1---3---3---5---5---17---17/------------|
G|---2---2---2---2---2---5---5---17---17/------------|
D|---------------------------------------------------|
A|---------------------------------------------------|
E|---------------------------------------------------|


C      G           Am    F       C
Vou me preparar, num banho de mar
       G            Am  F
Pronto pra ser todo seu
C         G       Am             F
Vou amar demais, quero estar em paz
C      G            Am  Am G
Entre nós só sexo e deus
F
Se ela me chamar
G
E quiser me amar
Am
Eu vou, vou vou, vou
                G      F
Vou, vou, vou, vou, vou.
F
Sexy yemanja
G
Tudo a ver com o mar
G#            Bb       C
A noite vai ter lua cheia
       G       Am     F
A noite vai ter lua cheia
C       G           Am F
Quem eu amo vem me ver
C        G            Am   F
A noite vai ter lua cheia
C     G
Ai, papa
Am            F
Eu só quero lembrar
C             G          Am   F
Que a luz da lua vem do Sol
C     G
Ai, papa
Am             F
Eu só quero lembrar
C             G          Am   F   F   G
Que a luz da lua vem do Sol
G#          Bb           C
A noite vai ter lua cheia.
00:00 / 00:00
Outros vídeos desta música
Repetir
Outros vídeos desta música
Composição de Pepeu Gomes / Tavinho Paes
59.466 exibições
    • ½ Tom
    • A
    • Bb
    • B
    • C
    • Db
    • D
    • Eb
    • E
    • F
    • F#
    • G
    • Ab
  • Adicionar à lista

    0 comentários

    Ver todos os comentários

    Conseguiu tocar?

    4 Tocaram 0 Ainda não

    Grave um vídeo tocando Sexy Yemanjá e nos envie!

    Entre para oCifra Club PRO

    Tenha acesso a benefícios exclusivos no App e no Site

    • Chega de anúncios

    • Prioridade de compra em lançamentos

    • Mais recursos no app do Afinador

    • Atendimento Prioritário

    • Descontos nos produtos Cifra Club

    • Ajude a produzir mais conteúdo

    00:00 / 00:00

    Cifra Club Pro

    Aproveite o Cifra Club com benefícios exclusivos e sem anúncios
    Cifra Club Pro
    Aproveite o Cifra Club com benefícios exclusivos e sem anúncios
    OK