Cifra Club

Viva Por Mim

Victor e Leo

Cifra: Principal (violão e guitarra)
Tom: A#
Intro: Gm Eb Bb F (2x)

Solo Teclado 2x:

E|--3-0---3-3-0---7-7-3----7-5-2---3-3p2-0---0--|
B|-----------------------------------------3----|

Solo Guitarra:
E|---------------------------------------------------------|
B|---------------------------------------------------------|
G|---------------------------------------------------------|
D|-4/5--2-2-4-4/5------------------------------2/4-4-5-5/7-|
A|-------------------3-3-5-5/7---0h2-2-3-3/5---------------|
E|---------------------------------------------------------|

Gm                                   Bb
Cada sorriso vai ser pra sempre a melhor lembrança
F                               Gm
Cada olhar a chama acessa pra amar
                              Bb
Cada abraço prazer infinito,o som a nossa dança
F                                       Gm
O passado ainda arde em meu peito sem parar

 Cm
E toda vez que se lembrar de mim
Gm
Saiba que estarei com você
Cm
E quando tudo parecer o fim
Gm                        F
Lembra-se que nunca vou deixar
Cm            Bb/D Eb F
Nosso amor morrer
Cm                                  Gm
Alguém pode me dizer se vou te encontrar outra vez
Bb                              F
Será que alguém pode me fazer voltar?
 Cm                                  Gm
Sei que a porta sempre vai estar aberta pra nós
     Bb                                         F
Pra quando eu entrar em seus sonhos poder te encontrar
Eb                               Bb            F
Lembra, eu sempre disse, que tudo ficaria bem
Eb                                   Gm   F         Gm
Eu sei que não mais estou ai, então viva, viva por mim.

Base do Solo (Cm Eb Cm Eb Cm Eb Cm F)
exibições 24.743
Acordes para:
    Colaboração e revisão:

    0 comentários

    mostrar mais comentários

    Conseguiu tocar?

    10 tocaram 0 ainda não

    Grave um vídeo tocando Viva Por Mim e mande pra gente!

    00:00 / 00:00
    outros vídeos desta música
    repetir qualidade Automático
    Outros vídeos desta música
    00:00 / 00:00
    Automático
    OK