Cifra Club

Chão de Terra

Victor Mus

Cifra: Principal (violão e guitarra)
tom: F
E|-------------------------5----------------------------|
B|----------5----5-5/6/5-------5-----5-5/6--------------| 
G|----------5----5-5-----------5-----5-5----------------| 
D|--------3----3-------------3----3---------------------| 
A|------5-----5------------5----5-----------------------| 
E|------------------------------------------------------|

E|------------------------------------------------------|
B|------5/11--10---5/11--10--5/11--10-10-8-6-5----------|
G|------4-----10---4-----10--4-----10-10-9-7-5----------|
D|----5----------5--------------------------------------|
A|------------------------------------0-----------------|
E|---5---------5-----------5----------------------------|

F5/D
Nuca de pedra, cheiro de terra
Amor meio amargo, jogo sem regra
A7
No teu abraço o tempo é sempre escasso
Me diz por quê?
F5/D
Chão de chapisco, beijo rabisco
Trato feito na conta do risco
A7
E eu que tenho tudo a perder perco feliz, se ganhar você
F5/D
Tem um pouquinho de axé nesse beijo teu
A7
Que faz o beijo meu ganhar o mundo
F5/D
Tem um pouquinho de axé nesse beijo meu
A7
Que faz o beijo teu ganhar o mundo

G5 A5 Bb5
Procura paz em quem só tem caos pra dar, e vem com medo
C5 (C#5-)
Quem será...
Dm7
Que vai sorrir?
G7
Que vai chorar?
A7 Dm9/Bb C
Talvez seja a vida, talvez seja o azar
Dm7
Que vai sorrir?
G7
Que vai chorar?
A7
Não importa quem seja
G F E Bb4/C
Quem você pensa que é pra não querer me amar?
Compositor não encontrado.
Colaboração e revisão:
  • João Suprani
113 exibições
    • ½ Tom
    • A
    • Bb
    • B
    • C
    • Db
    • D
    • Eb
    • E
    • F
    • F#
    • G
    • Ab
  • Adicionar à lista

    0 comentários

    Ver todos os comentários

    Conseguiu tocar?

    0 Tocaram 0 Ainda não

    Grave um vídeo tocando Chão de Terra e nos envie!

    00:00 / 00:00
    Outros vídeos desta música
    Repetir Qualidade Automático
    Outros vídeos desta música
    00:00 / 00:00
    Automático

    Cifra Club Pro

    Aproveite o Cifra Club com benefícios exclusivos e sem anúncios
    Cifra Club Pro
    Aproveite o Cifra Club com benefícios exclusivos e sem anúncios
    OK