Cifra Club

Aprenda

Eu Te Busco

Vineyard Music

Cifra: Principal (violão e guitarra)
tom: G
[Intro]

    G         G         C9        C9
E|--3---------3---------3---------3----|
B|--3---------3------0--3---------3----|
G|---------------0-2-------------------|
D|-----0-2-0------------2--0-2-0--2----|
A|--2---------2---------3---------2----|
E|--3---------3------------------------|

          Em        D   D   D  D/E  D
E|------------------2---2---2/4----2---|
B|-----1-----0-1-3--3---3---3/5----3---|
G|-0-2--------------2---2---2/4----2---|
D|--------2----------------------------|
A|--------2----------------------------|
E|-------------------------------------|

    C9                          G
E|--3--3-2-0---0----------------3------|
B|--3--------3---3---3----------3------|
G|-----------------4---0-0h2p0---------|
D|-------------------------------------|
A|--3---------------------------2------|
E|------------------------------3------|

( G  C9  Em  D )

G
Eu te busco
                 C9
Te procuro, oh Deus
Em           D9       C
No silêncio Tu    estás
G
Eu Te busco
             C9
Toda hora espero em Ti
Revela-te a mim
Em               D9      C
Conhecer-Te eu quero   mais
G           D9
Senhor, Te quero
Em      C
Quero ouvir Tua voz
G           D9      C9
Senhor, Te quero mais
G         D9
Quero tocar - Te
Em          C
Tua face eu quero ver
G           D      C9
Senhor, Te quero mais

[Solo] D  C9  G
       D  C9  G
       F  C9
       F

G                          C9
Prosseguindo para o alvo eu vou
Em      D       C
A coroa conquistar
G
Vou lutando
          C9
Nada pode me impedir

Eu vou te seguir
Em             D   C
Conhecer-te eu quero mais

G           D
Senhor, te quero

[Final] D  C9  G
        D  C9  G
Compositor não encontrado.
157.234 exibições
    • ½ Tom
    • A
    • Bb
    • B
    • C
    • Db
    • D
    • Eb
    • E
    • F
    • F#
    • G
    • Ab
  • Adicionar à lista

    0 comentários

    Ver todos os comentários
    00:00 / 00:00
    Outros vídeos desta música
    Repetir Qualidade Automático
    Outros vídeos desta música
    00:00 / 00:00
    Automático

    Cifra Club Pro

    Aproveite o Cifra Club com benefícios exclusivos e sem anúncios
    Cifra Club Pro
    Aproveite o Cifra Club com benefícios exclusivos e sem anúncios
    OK