Cifra Club

Aprenda

Glorioso -"Glorious"

Vineyard Music

Cifra: Principal (violão e guitarra)
tom: E
    INTRO: A  B  C#m  B (2x)
|---------------------------(RIFF GUITAR-1)----Tocar na 1º e 2º vez-----|
  |       A                  B                  C#               B        |
|-----------------|-----------------|-----------------|-----------------|
|-----------------|-----------------|-----------------|-----------------|
|-----------------|-----------------|-----------------|-----------------|
|-----------------|-----------------|-----------------|-----------------|
|-0-0-0-0-0-0-0-0-|-2-2-2-2-2-2-2-2-|-4-4-4-4-4-4-4-4-|-2-2-2-2-2-2-2-2-|
|-----------------|-----------------|-----------------|-----------------|
                                             (RIFF TECLADO: A-Bb-G#-F#-E)


|-------------------------------------------(RIFF GUITAR-2)-----------------Tocar na 2º vez----|
  |          A                    B                       C#                         B           |
|---------------------|--------------------|--------------------------|------------------------|
|-6---6---6----6-6----|-8---8---8----8-8---|-9----9-----9------9-9----|-8---8---8----8-8-------|
|---7---7---7-------7-|---9---9---9------9-|---11----11----11------11-|---9---9---9------9-----|
|---------------------|--------------------|--------------------------|------------------------|
|---------------------|--------------------|--------------------------|------------------------|
|---------------------|--------------------|--------------------------|------------------------| 
                                                                    (RIFF TECLADO: A-Bb-G#-F#-E)

|---------------------|--------------------|--------------------------|------------------------|
|-6---6---6----6-6----|-8---8---8----8-8---|-9----9-----9------9-9----|-9----9----9-----9-9----|
|---7---7---7-------7-|---9---9---9------9-|---11----11----11------11-|---11---11---11------11-|
|---------------------|--------------------|--------------------------|------------------------|
|---------------------|--------------------|--------------------------|------------------------|
|---------------------|--------------------|--------------------------|------------------------|
                                                                    (RIFF TECLADO: A-Bb-G#-F#-E)

    
(RIFF GUITAR-1)
A         B    C#m
A voz do céu a surgir 
       B              A
Sem linguagem, faz-se ouvir
    B      C#m
Teu louvor proclamar 
                   (RIFF TECLADO: A-Bb-G#-F#-E)


(RIFF GUITAR - 1 e 2)
A       B       C#m
A tua a luz não retém
      B             A
Noite finda e o dia vem
         B     C#m
Quando o filho virá


   REFRÃO:("as duas guitarras executando seus riff´s juntas")
|-------------------------------------------(REFRÃO GUITAR-1)------------------------------------|
|                                                                                                |
|----------|-17-17-17-17-|-14-14-14-14-|-12-12-12-12-|-11-11-11-11-11-11-|-7-7-7-7-|-11-11-11-11-|
|----------|-------------|-------------|-------------|-------------------|---------|-------------|
|----------|-------------|-------------|-------------|-------------------|---------|-------------|
|-19-19-19-|-------------|-------------|-------------|-------------------|---------|-------------|
|----------|-------------|-------------|-------------|-------------------|---------|-------------|
|----------|-------------|-------------|-------------|-------------------|---------|-------------|
 
|--------------------------(REFRÃO GUITAR-2)--------------|
  |      A                C#         B  B                   |
|---------------|--------------|-----------|--------------|
|------10-------|-------14-----|---12--12--|--------------|
|------9--------|-------13-----|---11--11--|--------------|
|------7--------|-------11-----|---9---9---|--------------|
|------0--------|--------------|-----------|--------------|
|---------------|--------------|-----------|--------------|

A     E      B   A        E     B
Todos hão de ver quando o céu descer
   A     E     B          A     E       B
Os povos cantarão Rei dos Reis, Rei dos Reis
   A     E      B   A        E     B
Os astros aos teus pés Jesus Cristo és
   A     E         B         A        E     B
Pra sempre irás reinar Rei dos Reis, Rei dos Reis


     (PONTE-1): A  B  C#m  B
 |-----------------------------------(RIFF GUITAR-1)---------------------|
   |       A                  B                  C#               B        |
E|-----------------|-----------------|-----------------|-----------------|
B|-----------------|-----------------|-----------------|-----------------|
G|-----------------|-----------------|-----------------|-----------------|
D|-----------------|-----------------|-----------------|-----------------|
A|-0-0-0-0-0-0-0-0-|-2-2-2-2-2-2-2-2-|-4-4-4-4-4-4-4-4-|-2-2-2-2-2-2-2-2-|
E|-----------------|-----------------|-----------------|-----------------|
                                             (RIFF TECLADO: A-Bb-G#-F#-E)

|-------------------------------------------(RIFF GUITAR-2)------------------------------------|
  |          A                    B                       C#                         B           |
|---------------------|--------------------|--------------------------|------------------------|
|-6---6---6----6-6----|-8---8---8----8-8---|-9----9-----9------9-9----|-8---8---8----8-8-------|
|---7---7---7-------7-|---9---9---9------9-|---11----11----11------11-|---9---9---9------9-----|
|---------------------|--------------------|--------------------------|------------------------|
|---------------------|--------------------|--------------------------|------------------------|
|---------------------|--------------------|--------------------------|------------------------|


(RIFF GUITAR-1)
A       B        C#m     B          A
O teu poder se verá e ninguém irá negar
    B           C#m
Teu mover entre nós
                  (RIFF TECLADO: A-Bb-G#-F#-E)


(RIFF GUITAR - 1 e 2)
A       B               C#m
Vem nos encher, transbordar
        B          A
Com tua glória nos tocar
       B         C#m
Vem reinar sobre nós



  REFRÃO:("as duas guitarras executando seus riff´s juntas")
|-------------------------------------------(REFRÃO GUITAR-1)------------------------------------|
|                                                                                                |
|----------|-17-17-17-17-|-14-14-14-14-|-12-12-12-12-|-11-11-11-11-11-11-|-7-7-7-7-|-11-11-11-11-|
|----------|-------------|-------------|-------------|-------------------|---------|-------------|
|----------|-------------|-------------|-------------|-------------------|---------|-------------|
|-19-19-19-|-------------|-------------|-------------|-------------------|---------|-------------|
|----------|-------------|-------------|-------------|-------------------|---------|-------------|
|----------|-------------|-------------|-------------|-------------------|---------|-------------|
 
|--------------------------(REFRÃO GUITAR-2)--------------|
  |      A                C#         B  B                   |
|---------------|--------------|-----------|--------------|
|------10-------|-------14-----|---12--12--|--------------|
|------9--------|-------13-----|---11--11--|--------------|
|------7--------|-------11-----|---9---9---|--------------|
|------0--------|--------------|-----------|--------------|
|---------------|--------------|-----------|--------------|

A     B      E   A        B     E
Todos hão de ver quando o céu descer
   A     B     E          A     B       E
Os povos cantaram Rei dos Reis, Rei dos Reis
   A      B        E    A     B     E
Os astros aos teus pés Jesus Cristo és
    A      B    E              A     B       E
Pra sempre irás reinar Rei dos Reis, Rei dos Reis
        A     C#m     B
rei dos reis, rei dos reis


     (PONTE-2): A  C#m  B (2x)
|----------------------------(GUITAR-2)---------------------|
  |      A                 C#           B                     |
|---------------|--------------|-------------|--------------|
|------10-------|-------14-----|-----12------|--------------|
|------9--------|-------13-----|-----11------|--------------|
|------7--------|-------11-----|-----9-------|--------------|
|------0--------|--------------|-------------|--------------|
|---------------|--------------|-------------|--------------|

     (PONTE-3 com solo): A  C#m  B (18x)
|----------------------------(GUITAR-2)---------------------|
  |      A                 C#           B                     |
|---------------|--------------|-------------|--------------|
|------10-------|-------14-----|-----12------|--------------|
|------9--------|-------13-----|-----11------|--------------|
|------7--------|-------11-----|-----9-------|--------------|
|------0--------|--------------|-------------|--------------|
|---------------|--------------|-------------|--------------|

|----------------------------------(GUITAR-1)-----------------------------------|
|                                                                               |
|----------|----------|----------|----------|----------|------------------------|
|----------|----------|----------|----------|----------|------------------------|
|----------|----------|----------|----------|----------|------------------------|
|-11--9--7-|-11--9--7-|-11p9p7---|-11--9--7-|-11--9--7-|-x-x-x-x-11-11-11p9p7---|
|----------|----------|--------9-|----------|----------|----------------------9-|
|----------|----------|----------|----------|----------|------------------------|

A C#m B
Tu és Glorioso                  
A  C#m B
És tão Glorioso


  REFRÃO:("as duas guitarras executando seus riff´s juntas")
|-------------------------------------------(REFRÃO GUITAR-1)------------------------------------|
|                                                                                                |
|----------|-17-17-17-17-|-14-14-14-14-|-12-12-12-12-|-11-11-11-11-11-11-|-7-7-7-7-|-11-11-11-11-|
|----------|-------------|-------------|-------------|-------------------|---------|-------------|
|----------|-------------|-------------|-------------|-------------------|---------|-------------|
|-19-19-19-|-------------|-------------|-------------|-------------------|---------|-------------|
|----------|-------------|-------------|-------------|-------------------|---------|-------------|
|----------|-------------|-------------|-------------|-------------------|---------|-------------|
 
|---------------------(REFRÃO GUITAR-2)-------------------|
  |      A                C#         B   B                  |
|---------------|--------------|-----------|--------------|
|------10-------|-------14-----|---12--12--|--------------|
|------9--------|-------13-----|---11--11--|--------------|
|------7--------|-------11-----|---9---9---|--------------|
|------0--------|--------------|-----------|--------------|
|---------------|--------------|-----------|--------------|

A     B      E   A        B     E
Todos hão de ver quando o céu descer
   A     B     E          A     B       E
Os povos cantaram Rei dos Reis, Rei dos Reis
   A      B        E    A     B     E
Os astros aos teus pés Jesus Cristo és
    A      B    E              A     B       E
Pra sempre irás reinar Rei dos Reis, Rei dos Reis
        A     C#m     B
rei dos reis, rei dos reis, 
        A     C#m     B
rei dos reis, rei dos reis.


  (FINAL - "as duas guitarras terminam tocando seus riff´s juntas")
|------------------------------(RIFF GUITAR-1)--------------------------|
  |       A                  B                  C#               B        |
|-----------------|-----------------|-----------------|-----------------|
|-----------------|-----------------|-----------------|-----------------|
|-----------------|-----------------|-----------------|-----------------|
|-----------------|-----------------|-----------------|-----------------|
|-0-0-0-0-0-0-0-0-|-2-2-2-2-2-2-2-2-|-4-4-4-4-4-4-4-4-|-2-2-2-2-2-2-2-2-|
|-----------------|-----------------|-----------------|-----------------|

|-------------------------------------------(RIFF GUITAR-2)------------------------------------|
  |          A                    B                       C#                         B           |
|---------------------|--------------------|--------------------------|------------------------|
|-6---6---6----6-6----|-8---8---8----8-8---|-9----9-----9------9-9----|-8---8---8----8-8-------|
|---7---7---7-------7-|---9---9---9------9-|---11----11----11------11-|---9---9---9------9-----|
|---------------------|--------------------|--------------------------|------------------------|
|---------------------|--------------------|--------------------------|------------------------|
|---------------------|--------------------|--------------------------|------------------------|

|---------------------|--------------------|--------------------------|------------------------|
|-6---6---6----6-6----|-8---8---8----8-8---|-9----9-----9------9-9----|-9----9----9-----9-9----|
|---7---7---7-------7-|---9---9---9------9-|---11----11----11------11-|---11---11---11------11-|
|---------------------|--------------------|--------------------------|------------------------|
|---------------------|--------------------|--------------------------|------------------------|
|---------------------|--------------------|--------------------------|------------------------| 
                                                                    (RIFF TECLADO: A-Bb-G#-F#-E)
Composição de Mike Goodlet/feat: Dana Masters
Colaboração e revisão:
  • Giuliano Vargas
104 exibições
    • ½ Tom
    • A
    • Bb
    • B
    • C
    • Db
    • D
    • Eb
    • E
    • F
    • F#
    • G
    • Ab
  • Adicionar à lista

    0 comentários

    Ver todos os comentários
    00:00 / 00:00
    Outros vídeos desta música
    Repetir Qualidade Automático
    Outros vídeos desta música
    00:00 / 00:00
    Automático

    Cifra Club Pro

    Aproveite o Cifra Club com benefícios exclusivos e sem anúncios
    Cifra Club Pro
    Aproveite o Cifra Club com benefícios exclusivos e sem anúncios
    OK