Santo

Vineyard

tom: D
INTRO-(8x)
E|---------------------------|
B|---------------------------|
G|---------------------------|
D|-7-7--7-7-----7-(7)----5-5-|
A|-5-5--5-5-----5-(5)----7-7-|
E|---------------------------|



    *( D5 - "deixe soar" )
....Santo, Santo, Poderoso
    Que era e que há de vir
    Deus da glória, Tu és digno
    Eu me prostro a Ti........

    *( "Na segunda vez, executar os riff´s 1 e 2 em sequência" )
....Santo, Santo, Poderoso.
    Que era e que há de vir
    Deus da glória, Tu és digno
    Eu me prostro a Ti........

   (RIFF-1): "Lick de blues(penta) em Dm"
E|---------------------|-------------------|----------|
B|---------------------|-------------------|----------|
G|---------7----5--7~~-|-------5--7/9--7~~-|----------|
D|---------------------|-------------------|----------|
A|--5-x-5-----5--------|-5-x-5-------------|----------|
E|---------------------|-------------------|----------|

   (RIFF-2): : "Lick de blues(penta) em Dm"
E|---------------------|-------------------|-----------------------------|
B|---------------------|-------------------|-----------------------------|
G|---------7----5--7~~-|-------7~----------|-5h7p5-----5-----------------|
D|---------------------|-------------------|--------7h----7p5h7p5-----5\-|
A|--5-x-5-----5--------|-5-x-5-------------|-----------------------7h----|
E|---------------------|-------------------|-----------------------------|



.....(REFRÃO);
              A5       G5    D5
Santo é o Teu nome em todo lugar
              A5         G5      D5
Reto é o teu querer, de graça e paz
              A5       G5       D5
Tudo o que tens feito é justo e bom
        G5     A5      D5
Santo, Santo Deus Tu és


  INTRO-(4x)
E|---------------------------|
B|---------------------------|
G|---------------------------|
D|-7-7--7-7-----7-(7)----5-5-|
A|-5-5--5-5-----5-(5)----7-7-|
E|---------------------------|



    *( D5 - "deixe soar" )
....Santo, Santo, Poderoso
    Que era e que há de vir......

    *("Executar os riff´s 1 e 2 em sequência" )
....Deus da glória, Tu és digno
    Eu me prostro a Ti........

   (RIFF-1): "Lick de blues(penta) em Dm"
E|---------------------|-------------------|----------|
B|---------------------|-------------------|----------|
G|---------7----5--7~~-|-------5--7/9--7~~-|----------|
D|---------------------|-------------------|----------|
A|--5-x-5-----5--------|-5-x-5-------------|----------|
E|---------------------|-------------------|----------|

   (RIFF-2): : "Lick de blues(penta) em Dm"
E|---------------------|-------------------|-----------------------------|
B|---------------------|-------------------|-----------------------------|
G|---------7----5--7~~-|-------7~----------|-5h7p5-----5-----------------|
D|---------------------|-------------------|--------7h----7p5h7p5-----5\-|
A|--5-x-5-----5--------|-5-x-5-------------|-----------------------7h----|
E|---------------------|-------------------|-----------------------------|


.....(REFRÃO);
              A5       G5    D5
Santo é o Teu nome em todo lugar
              A5         G5      D5
Reto é o teu querer, de graça e paz
              A5       G5       D5
Tudo o que tens feito é justo e bom
        G5     A5      D5
Santo, Santo Deus Tu és


.....(INTERLÚDIO - (2x));
B5       A5        G5           D5
 A honra, a glória pertencem a Ti
B5      A5             D5
 O poder e o saber são Teus


      *(REFRÃO - "P.M com WAH WAH");

.....Santo é o Teu nome em todo lugar
     Reto é o teu querer, de graça e paz
     Tudo o que tens feito é justo e bom.....
             G5     A5      D5
     Santo, Santo Deus Tu és


      *(REFRÃO e FINAL);
              A5       G5    D5
Santo é o Teu nome em todo lugar
              A5         G5      D5
Reto é o teu querer, de graça e paz
              A5       G5       D5
Tudo o que tens feito é justo e bom
        G5     A5      D5
Santo, Santo Deus Tu és


(RIFF-3): "FINALIZANDO O REFRÃO"
E|----------------------------|-------------------|----------|
B|----------------------------|-------------------|----------|
G|----------------------------|-------------------|----------|
D|----------------------------|-------------------|----------|
A|--------7-9-10----9-7---5-5-|-------------------|----------|
E|-(7)--7---------------------|-------------------|----------|
 
.....Santo, Santo Deus Tu és.....



  INTRO-(8x)
E|---------------------------|
B|---------------------------|
G|---------------------------|
D|-7-7--7-7-----7-(7)----5-5-|
A|-5-5--5-5-----5-(5)----7-7-|
E|---------------------------|

   (RIFF-1): "Lick de blues(penta) em Dm"
E|---------------------|-------------------|----------|
B|---------------------|-------------------|----------|
G|---------7----5--7~~-|-------5--7/9--7~~-|----------|
D|---------------------|-------------------|----------|
A|--5-x-5-----5--------|-5-x-5-------------|----------|
E|---------------------|-------------------|----------|

   (RIFF-2): : "Lick de blues(penta) em Dm"
E|---------------------|-------------------|-----------------------------|
B|---------------------|-------------------|-----------------------------|
G|---------7----5--7~~-|-------7~----------|-5h7p5-----5-----------------|
D|---------------------|-------------------|--------7h----7p5h7p5-----5\-|
A|--5-x-5-----5--------|-5-x-5-------------|-----------------------7h----|
E|---------------------|-------------------|-----------------------------|
Página 1 / 1

Letras e título
Acordes e artista

resetar configurações
OK