Cifra Club

Aprenda

Senhor Te Quero

Vineyard

Cifra: Versão 4 (violão e guitarra)
tom: G
INT: (Violão) 
      G         G         C9 

E| ---3-3---------3-3---------3-3------- 
B| ---3-3---------3-3---------3-3------- 
G| ---0-0---------0-0---------0-0------- 
D| ---0-0--2h0--0-0--0h2--2-2---0h2-- 
A| ---2-2---------2-2---------3-3------- 
E| ---3-3---------3-3------------------ 
 
       C9        Em         D 

E| ---3-----------0-------------2----- 
B| ---3-------1--0---0-1-3--3----0- 
G| ---0--0--2---0------------2--2--2 
D| ---2-----------2---------------- 
A| ---3-----------2---------------- 
E| ---------------0---------------- 
 
       C9        C9 

E| ---333-22222-333-22222--...... 
B| ---333-33333-333-33333--...... 
G| ---000-00000-000-00000--...... 
D| ---222-00000-222-00000--...... 
A| ---333-33333-333-33333--...... 
E| ------------------------......

(Violão / Baixo)

G                  C
Eu te busco, te procuro óh Deus
Em        D    C
No silêncio tu estás
G                C
Eu te busco, toda hora espero em ti, revela-te a mim
Em          D   C
Conhecer-te eu quero mais

[Refrão](Em Power Achord)entra guitarra e bateria
G           D
Senhor te quero
Em            C
Quero ouvir tua voz
G        D     C
 Senhor, te quero mais
(Riff 1)
G       D
 Quero tocar-te
Em           C
 Tua face eu quero ver
G        D     C
 Senhor, te quero mais

(Volta a tocar do jeito normal)nessa parte bateria quase não toca, guitarra sai

G                     C
 Prosseguindo, para o alvo eu vou
Em      D    C
 A coroa conquistar
G               C               Em
 Vou lutando, nada pode me impedir, eu vou te seguir
          D   C
 Conhecer-te eu quero mais

 Refrão com solo de guitarra e saquisofone no final!!! O violão e baixo; D C G G (2x) F C F C G G G G
        Prosseguindo...
        Refrão 
        Refrão 
        Solo final (G  D  Em  C  G  D  G)


Solo Gtr (com distorção)
e|--------------------------------------|
B|--------------------------------------|
G|--------------------------------------|
D-9-10-12b-10b-9-10-12-10-9-10-12-10---|

A|--------------------------------------|
E|--------------------------------------|

e|-----------------------------------------------|
B|-----------------10-12-13----------------------|
G|---------9-10-12----------9-10-12--------------|
D-9-10-12--------------------------9-10-12b-12b-|

A|-----------------------------------------------|
E|-----------------------------------------------|

e|-----------------------------------------------------|
B|-----------------------------------------------------|
G|-----------------------------------------------------|
D-10-9-10-12-10-9-10b-9p10p9p10p9p...(ate acaba o som)|

A|-----------------------------------------------------|
E|-----------------------------------------------------|

Riff 1
e-7---7h8-7------7---7h8-7-------------|
B|---8-------8------8-------8-----------|
G|--------------------------------------|
D|--------------------------------------|
A|--------------------------------------|
E|--------------------------------------|
Composição de Andy Park
Colaboração e revisão:
  • Filipe Monteiro
  • lucas cilf
  • BRUNO SOUZA
7.273 exibições
    • ½ Tom
    • A
    • Bb
    • B
    • C
    • Db
    • D
    • Eb
    • E
    • F
    • F#
    • G
    • Ab
  • Adicionar à lista

    0 comentários

    Ver todos os comentários
    00:00 / 00:00
    Outros vídeos desta música
    Repetir Qualidade Automático
    Outros vídeos desta música
    00:00 / 00:00
    Automático

    Cifra Club Pro

    Aproveite o Cifra Club com benefícios exclusivos e sem anúncios
    Cifra Club Pro
    Aproveite o Cifra Club com benefícios exclusivos e sem anúncios
    OK