Cifra Club

Aprenda

Senhor Te Quero

Vineyard

Tab de baixo: Principal
Eu te busco te procuro o Deus...
G|----------------------------
D|----------------------------
A|---------3-3-3-3--7-5-3-----  repete 2 vezes
E|-3-3-3-3--------------------

Refrão:
G|-----------------------------------------------------------
D|--------------------------9h10p9--10-9---9h10p9--10-9------
A|-----5-5-7-7-3-3-----5-5/--------10----10-------10----10---
E|-3-3-------------3-3---------------------------------------
Composição de Andy Park
Colaboração e revisão:
  • Leonardo Tillmann
  • rodrigo
8.814 exibições

0 comentários

Ver todos os comentários
00:00 / 00:00
Outros vídeos desta música
Repetir Qualidade Automático
Outros vídeos desta música
00:00 / 00:00
Automático

Cifra Club Pro

Aproveite o Cifra Club com benefícios exclusivos e sem anúncios
Cifra Club Pro
Aproveite o Cifra Club com benefícios exclusivos e sem anúncios
OK