Cifra Club

Onde Você Vai (versão Acústica)

Vinny

Cifra: Principal (violão e guitarra)
tom: A (forma dos acordes no tom de G) Capotraste na 2ª casa
(capo 2ª casa)

(intro) G C9 G C9 D D4

E|---------------------|-------------------------|
B|---------------------|-------------------------|
G|---------------------|-------------------------|
D|------------3b4b2----|------------3b4--3b4b2---|
A|--2b4/5--------------|--2b4/5------------------|
E|---------------------|-------------------------|

(3x)
E|-------------------------|
B|-------------------------|
G|-------------------------|
D|------------3b4--3b4b2---|
A|--2b4/5------------------|
E|-------------------------|

E|------------------|
B|------------------|
G|------------------|
D|------------3b4---|
A|--2b4/5-----------|
E|------------------|

 G
Vou esperar até o dia amanhecer
 C9
É nessa hora que eu me lembro de você
 G
É quando o céu está vermelho e frio
 C9
Continuo aqui

 G
Vou esperar até o dia terminar
 C9
Até a última janela se apagar
 G
É quando tudo está escuro
 C9
E eu continuo aqui

          Am
Não tente me entender
            D4          D
Eu me viro bem com a solidão
          Am             C       D
Nada irá acontecer, até você chegar

           G     D   D4
Não, oh!!! yes all right
         Am      C
Me leve onde você vai
      G          D   D4
Oh!!! yes all right
 Am            C
Tchururu! Tchururu!

 G
Vou esperar até alguém aparecer
 C9
Até o sono finalmente me vencer
 G
É quando eu posso ser o que quiser
 C9
E esquecer daqui
 G
Vou esperar até o sonho acabar
 C9
Ouvir as últimas palavras pelo ar
 G                          C9
Todo mundo foi embora e eu continuo aqui.

          Am
Não tente me entender
            D4          D
Eu me viro bem com a solidão
          Am              C   C9
Nada irá acontecer, até você chegar

           G     D   D4
Não, oh!!! yes all right
         Am      C
Me leve onde você vai
     G          D   D4
Oh!!! yes all right
 Am            C
Tchururu! Tchururu!

(solo)
E|------------------------|---------------|---------------|---------------------------------|
B|------------------------|---------------|---------------|---------------------------------|
G|------------------------|---------------|---------------|---------------------------------|
D|------------------------|---------------|---------------|---------------------------------|
A|-----------4--6^^4--2---|--------2--4---|-----------4---|---5---7---9---------------------|
E|--2--4--5---------------|--2--4---------|---2--4--5-----|---------------5--4--5--7--8--9--|

C           G     D   D4
Não, oh!!! yes all right
         Am      C
Me leve onde você vai
    G          D   D4
Oh!!! yes all right
 Am            C
Tchururu! Tchururu!  (2x)

G     D         Am      C
       Me leve onde você vai (3x)
G     D         Am      C
       Tchururu! Tchururu!

(final) G C9 G C9 D D4
00:00 / 00:00
Outros vídeos desta música
Repetir
Outros vídeos desta música
Composição de Vinny
Colaboração e revisão:
  • Gustavo Roque
  • Vinícius Conrado
9.596 exibições
    • ½ Tom
    • A
    • Bb
    • B
    • C
    • Db
    • D
    • Eb
    • E
    • F
    • F#
    • G
    • Ab
  • Adicionar à lista

    0 comentários

    Ver todos os comentários

    Conseguiu tocar?

    3 Tocaram 0 Ainda não

    Grave um vídeo tocando Onde Você Vai (versão Acústica) e nos envie!

    Entre para oCifra Club PRO

    Tenha acesso a benefícios exclusivos no App e no Site

    • Chega de anúncios

    • Prioridade de compra em lançamentos

    • Mais recursos no app do Afinador

    • Atendimento Prioritário

    • Descontos nos produtos Cifra Club

    • Ajude a produzir mais conteúdo

    00:00 / 00:00

    Cifra Club Pro

    Aproveite o Cifra Club com benefícios exclusivos e sem anúncios
    Cifra Club Pro
    Aproveite o Cifra Club com benefícios exclusivos e sem anúncios
    OK