Cifra Club

Law of the Sword

Viper

Cifra: Principal (violão e guitarra)
tom: A
(Viper)(Cifras por: Gabriel Fox)

Intro: :E5:D5:C5:
       :A5:B5:C5:B5:
(2 Vezes)

E5                          D5 G5
He was born between weapons he grew
C5                          B5 A5
Day and night he learned to survive
E5                                D5   G5
The wine was food that the graced with blood
C5                       B5  D5
His bible was the law of the sword

A5                  F5
But the chains were broken
C5                    A5
Now the gods want his soul
F5             G5                   A5      C5 B5 A5 G5 A5
The law of the sword will guide his hearts
(A5 F5 C5 A5 F5 G5 A5)
(E5 D5 C5 A5)

Intro: :E5:D5:C5:
       :A5:B5:C5:B5:
(2 Vezes)

E5                   D5  G5
Day after day he saw the pain
C5                       B5 A5 
Harlot women and hamlets in flame
E5                       D5  G5
On their horses they had the force
C5                    B5    D5
Till the death change their routes

A5                  F5
But the chains were broken
C5                    A5
Now the gods want his soul
F5             G5                   A5      C5 B5 A5 G5 A5
The law of the sword will guide his hearts
(A5 F5 C5 A5 F5 G5 A5)
(E5 D5 C5 B5)

Trecho introdutório do solo:
E|--------------------|-------------------|--------------------|-------------------|
B|--------------------|-------------------|--------------------|-------------------|
G|--------------------|--------7-9-7------|--------------------|--------7-9-7------|
D|--------7-10-9-7----|-7-9-10-------10-9-|--------7-10-9-7----|-7-9-10-------10-9-|
A|-7-9-10----------10-|-------------------|-7-9-10----------10-|-------------------|
E|--------------------|-------------------|--------------------|-------------------|

E|--------------------|-------------------|--------------------|
B|--------------------|-------------------|--------------------|
G|--------------------|--------7-9-7------|---------8s10-------|
D|--------7-10-9-7----|-7-9-10-------10-9-|--------------------|
A|-7-9-10----------10-|-------------------|-7-8-7-8------------|
E|--------------------|-------------------|--------------------|

E|--------------------|-------------------|--------------------|-------------------|
B|--------------------|-------------------|--------------------|-------------------|
G|--------------------|--------7-9-7------|--------------------|--------7-9-7------|
D|--------7-10-9-7----|-7-9-10-------10-9-|--------7-10-9-7----|-7-9-10-------10-9-|
A|-7-9-10----------10-|-------------------|-7-9-10----------10-|-------------------|
E|--------------------|-------------------|--------------------|-------------------|

E|--------------------|-------------------|--------------------|
B|--------------------|-------------------|--------------------|
G|--------------------|--------7-9-7------|--------------------|
D|--------7-10-9-7----|-7-9-10-------10-9-|--------------------|
A|-7-9-10----------10-|-------------------|-7-8-7-8-7-5-3-2----|
E|--------------------|-------------------|-----------------5--|

Base do resto do solo: :A5:C5:G5:F5:G5:3x
                       :A5:C5:G5:F5:F5:G5:G5:
                       :A5:C5:G5:F5:G5:4x (mais rápido)
                       :E5:
                       :C5:D5:E5:8x

Intro: :E5:D5:C5:
       :A5:B5:C5:B5:
(2 Vezes)


E5                       D5 G5
Angels of sky and demons of hell
C5                          B5 A5
Will not change the destiny of men
E5                          D5   G5
He fought with grace he die with faith
C5                          B5  D5
This was his tale god bless his name

A5                  F5
But the chains were broken
C5                    A5
Now the gods want his soul
F5             G5                   A5     C5 B5 A5 G5 A5
The law of the sword will guide his hearts

(A5 F5 C5 A5 F5 G5 A5)
(E5 D5 C5 B5)
(E5 D5 C5 B5)
(E5 D5 C5 B5)
(E5 D5 C5 B5 A5)
00:00 / 00:00
Outros vídeos desta música
Repetir
Outros vídeos desta música
Composição de Viper
Colaboração e revisão:
  • Gabriel Fox
1.011 exibições
    • ½ Tom
    • A
    • Bb
    • B
    • C
    • Db
    • D
    • Eb
    • E
    • F
    • F#
    • G
    • Ab
  • Adicionar à lista

    0 comentários

    Ver todos os comentários

    Conseguiu tocar?

    0 Tocaram 0 Ainda não

    Grave um vídeo tocando Law of the Sword e nos envie!

    Entre para oCifra Club PRO

    Tenha acesso a benefícios exclusivos no App e no Site

    • Chega de anúncios

    • Prioridade de compra em lançamentos

    • Mais recursos no app do Afinador

    • Atendimento Prioritário

    • Descontos nos produtos Cifra Club

    • Ajude a produzir mais conteúdo

    00:00 / 00:00

    Cifra Club Pro

    Aproveite o Cifra Club com benefícios exclusivos e sem anúncios
    Cifra Club Pro
    Aproveite o Cifra Club com benefícios exclusivos e sem anúncios
    OK