Cifra Club

Prelude of Oblivion

Viper

Cifra: Principal (violão e guitarra)
tom: G
Pit Passarell/Yves Passarell 

Guitar 1 (Overdrive) 

E||--------------------|--------------------|-------------------| 
B||--------------------|--------------------|-------------------| 
G||--------------------|--------------------|-------------------| 
D||-----------7--------|--9--------5--------|--7----------------| 
A||--5--------5--------|--7--------3--------|--5----------------| 
E||--3-----------------|--------------------|-------------------| 


                                                              
------------------|--------------------|--------------------| 
------------------|--------------------|--------------------| 
------------------|--------------------|--------------------| 
------------------|-----------7--------|--9--------7--------| 
------------------|--5--------5--------|--7--------5--------| 
------------------|--3-----------------|--------------------| 


                                                                               
-------------------|------------------|-------------------|------------------| 
-------------------|------------------|-------------------|------------------| 
-------------------|------------------|-------------------|------------------| 
--5----------------|------------------|--7----------------|------------------| 
--3----------------|------------------|--5----------------|------------------| 
-------------------|------------------|-------------------|------------------| 


                                                                           
-------------------|------------------|----------------------------------| 
-------------------|------------------|----------------------------------| 
--7----------------|------------------|----------4---------------4-------| 
--5----------------|------------------|--5-4-5-7---7-5-4-5-4-5-7---7-5-4-| 
-------------------|------------------|----------------------------------| 
-------------------|------------------|----------------------------------| 


                                                                      
---------------------------------|----------------------------------| 
---------------------------------|----------------------------------| 
----------4-------7--7-5-4-------|----------4---------------4-------| 
--5-4-5-7---7-5-4----------7-5-4-|--5-4-5-7---7-5-4-5-4-5-7---7-5-4-| 
---------------------------------|----------------------------------| 
---------------------------------|----------------------------------| 


                                                                      
---------------------------------|----------------------------------| 
---------------------------------|----------------------------------| 
----------4-------7--7-5-4-------|----------0---------------0-------| 
--5-4-5-7---7-5-4----------7-5-4-|--2-0-2-4---4-2-0-2-0-2-4---4-2-0-| 
---------------------------------|----------------------------------| 
---------------------------------|----------------------------------| 


                                                                      
---------------------------------|----------------------------------| 
---------------------------------|----------------------------------| 
----------0-------4--4-5-4-------|----------0---------------0-------| 
--2-0-2-4---4-2-0----------7-5-4-|--2-0-2-4---4-2-0-2-0-2-4---4-2-0-| 
---------------------------------|----------------------------------| 
---------------------------------|----------------------------------| 


                                                                      
---------------------------------|----------------------------------| 
---------------------------------|----------------------------------| 
----------0-------4--4-5-4-------|----------4---------------4-------| 
--2-0-2-4---4-2-0----------7-5-4-|--5-4-5-7---7-5-4-5-4-5-7---7-5-4-| 
---------------------------------|----------------------------------| 
---------------------------------|----------------------------------| 


                                                                      
---------------------------------|----------------------------------| 
---------------------------------|----------------------------------| 
----------4-------7--7-5-4-------|----------4---------------4-------| 
--5-4-5-7---7-5-4----------7-5-4-|--5-4-5-7---7-5-4-5-4-5-7---7-5-4-| 
---------------------------------|----------------------------------| 
---------------------------------|----------------------------------| 


                                                             
---------------------------------|--7----10---7------------| 
---------------------------------|--------------10----8----| 
----------4-------7--7-5-4-------|-------------------------| 
--5-4-5-7---7-5-4----------7-5-4-|-------------------------| 
---------------------------------|-------------------------| 
---------------------------------|-------------------------| 


                                                                                 
-------------7------------|--7----10---7------------|-------------7--10b-10----| 
-------7--8-----10--8-----|--------------10----8----|-------7--8---------------| 
--9--------------------9--|-------------------------|--9-----------------------| 
--------------------------|-------------------------|--------------------------| 
--------------------------|-------------------------|--------------------------| 
--------------------------|-------------------------|--------------------------| 


                                                                                
--7----10---7------------|-------------7------------|--7----10---7------------| 
--------------10----8----|-------7--8-----10--8-----|--------------10----8----| 
-------------------------|--9--------------------9--|-------------------------| 
-------------------------|--------------------------|-------------------------| 
-------------------------|--------------------------|-------------------------| 
-------------------------|--------------------------|-------------------------| 


                                                                              
-------------7------------|------------------|----------|-------------------| 
-------7--8-----10--10~---|------------------|----------|-------------------| 
--9-----------------------|------------------|----------|-------------------| 
--------------------------|------------------|----------|-------------------| 
--------------------------|------------------|----------|--2----------------| 
--------------------------|------------------|----------|--0----------------| 


                                                       
------------------|----------------------------------| 
------------------|----------------------------------| 
------------------|----------0---------------0-------| 
------------------|--2-0-2-4---4-2-0-2-0-2-4---4-2-0-| 
------------------|----------------------------------| 
------------------|----------------------------------| 


                                                                           
----------------------------------|-------------------|------------------| 
----------------------------------|-------------------|------------------| 
----------0---------------0-------|-------------------|------------------| 
--2-0-2-4---4-2-0-2-0-2-4---4-2-0-|-------------------|------------------| 
----------------------------------|--2----------------|------------------| 
----------------------------------|--0----------------|------------------| 


                                                                       
----------------------------------|----------------------------------| 
----------------------------------|----------------------------------| 
----------0---------------0-------|----------0---------------0-------| 
--2-0-2-4---4-2-0-2-0-2-4---4-2-0-|--2-0-2-4---4-2-0-2-0-2-4---4-2-0-| 
----------------------------------|----------------------------------| 
----------------------------------|----------------------------------| 


                                                                               
-------------------|------------------|-------------------|------------------| 
-------------------|------------------|-------------------|------------------| 
-------------------|------------------|-------------------|------------------| 
--5----------------|------------------|--7----------------|------------------| 
--3----------------|------------------|--5----------------|------------------| 
-------------------|------------------|-------------------|------------------| 


                                                                      
----------------------------------|---------------------------------| 
----------------------------------|---------------------------------| 
----------4---------------4-------|----------4-------7--7-5-4-------| 
--5-4-5-7---7-5-4-5-4-5-7---7-5-4-|--5-4-5-7---7-5-4----------7-5-4-| 
----------------------------------|---------------------------------| 
----------------------------------|---------------------------------| 


                                                                      
----------------------------------|---------------------------------| 
----------------------------------|---------------------------------| 
----------4---------------4-------|----------4-------7--7-5-4-------| 
--5-4-5-7---7-5-4-5-4-5-7---7-5-4-|--5-4-5-7---7-5-4----------7-5-4-| 
----------------------------------|---------------------------------| 
----------------------------------|---------------------------------| 


                                                                      
----------------------------------|---------------------------------| 
----------------------------------|---------------------------------| 
----------0---------------0-------|----------0-------4--4-5-4-------| 
--2-0-2-4---4-2-0-2-0-2-4---4-2-0-|--2-0-2-4---4-2-0----------7-5-4-| 
----------------------------------|---------------------------------| 
----------------------------------|---------------------------------| 


                                                                      
----------------------------------|---------------------------------| 
----------------------------------|---------------------------------| 
----------0---------------0-------|----------0-------4--4-5-4-------| 
--2-0-2-4---4-2-0-2-0-2-4---4-2-0-|--2-0-2-4---4-2-0----------7-5-4-| 
----------------------------------|---------------------------------| 
----------------------------------|---------------------------------| 


                                                                           
--9------9--10--12--------|--------10--9----------|--9--------9----10----| 
-----10-------------------|-----------------12----|----------------------| 
--------------------------|-----------------------|----------------------| 
--------------------------|-----------------------|----------------------| 
--------------------------|-----------------------|----------------------| 
--------------------------|-----------------------|----------------------| 


                                                                         
--9------7----------|--9----------------------|------------------------| 
--------------------|-----12--10----10--------|------------------10----| 
--------------------|-------------------------|--11--------11----------| 
--------------------|-------------------------|------------------------| 
--------------------|-------------------------|------------------------| 
--------------------|-------------------------|------------------------| 


                                                         
----------12-12-12------17-17-|--17------21--19--------| 
--12--------------------------|------------------------| 
------------------------------|------------------------| 
------------------------------|------------------------| 
------------------------------|------------------------| 
------------------------------|------------------------| 


                                                                            
--9------9--10--12--------|--------10--9----------|--9----------9--7--10--| 
-----10-------------------|-----------------12----|-----------------------| 
--------------------------|-----------------------|-----------------------| 
--------------------------|-----------------------|-----------------------| 
--------------------------|-----------------------|-----------------------| 
--------------------------|-----------------------|-----------------------| 


                                                                          
--9------7------9----|--9----------------------|------------------------| 
---------------------|-----12--10--------10----|------------------10----| 
---------------------|-------------------------|--11--------11----------| 
---------------------|-------------------------|------------------------| 
---------------------|-------------------------|------------------------| 
---------------------|-------------------------|------------------------| 


                                                         
----------12-12-12------17-17-|--17------21--19--------| 
--12--------------------------|------------------------| 
------------------------------|------------------------| 
------------------------------|------------------------| 
------------------------------|------------------------| 
------------------------------|------------------------| 


                                                                              
--10b---------10b---10--|--8--------7--------|------------------------------| 
------------------------|--------------------|------------------------------| 
------------------------|--------------------|------------------------------| 
------------------------|--------------------|------------------------------| 
------------------------|--------------------|--2--2-2-2--2-2-2--2-2-2--2-2-| 
------------------------|--------------------|--0--0-0-0--0-0-0--0-0-0--0-0-| 


                                                                              
------------------------------|--10b---------10b---10--|--8--------7--------| 
------------------------------|------------------------|--------------------| 
------------------------------|------------------------|--------------------| 
------------------------------|------------------------|--------------------| 
--2--2-2-2--2-2-2--2-2-2--2-2-|------------------------|--------------------| 
--0--0-0-0--0-0-0--0-0-0--0-0-|------------------------|--------------------| 


                                                                                
--------------------------|--------------------------|--10b---------10b---10--| 
--------------------------|--------------------------|------------------------| 
--------------------------|--------------------------|------------------------| 
--------------------------|--------------------------|------------------------| 
--------2--2--------2--2--|--------2--2--------2--2--|------------------------| 
--0--0--0--0--0--0--0--0--|--0--0--0--0--0--0--0--0--|------------------------| 


                                                                          
--8--------7--------|--------------------------|------------------------| 
--------------------|--------------------------|------------------------| 
--------------------|--------------------------|------------------------| 
--------------------|--------------------------|--------------4----4----| 
--------------------|--------------------------|--------------2----2----| 
--------------------|--0--0--0--0--0--0--0--0--|--0--0--0--0------------| 


                                                                            
-------------------------|------------------------|-----------------------| 
-------------------------|------------------------|-----------------------| 
--4----------------------|------------------------|--4--------------------| 
--2----------------------|--------------4----4----|--2----------4----4----| 
-------------------------|--------------2----2----|-------------2----2----| 
-------0--0--0--0--0--0--|--0--0--0--0------------|-------0--0------------| 


                                                                       
-----------------------|----------------------|----------------------| 
-----------------------|----------------------|----------------------| 
--4--------------------|--4---------4---------|--4-------------------| 
--2----------4----4----|--2----4----2----4----|--2----4----7----7----| 
-------------2----2----|-------2---------2----|-------2----5----5----| 
-------0--0------------|----------------------|----------------------| 


                                                                                
-------------------|-------------------|-------------------|------------------| 
-------------------|-------------------|-------------------|------------------| 
-------------------|-------------------|-------------------|------------------| 
-------------------|--5----------------|--7----------------|------------------| 
--5----------------|--3----------------|--5----------------|------------------| 
--3----------------|-------------------|-------------------|------------------| 


                                                       
--------------------------|--------------------------| 
--------------------------|--------------------------| 
--------------------------|--------------------------| 
--------------------------|--------------------------| 
--------------------------|--3--3--3--3--3--3--3--3--| 
--3--3--3--3--3--3--3--3--|--------------------------| 


                                                       
--------------------------|--------------------------| 
--------------------------|--------------------------| 
--------------------------|--------------------------| 
--------------------------|--------------------------| 
--------------------------|--5--5--5--5--5--5--5--5--| 
--5--5--5--5--5--5--5--5--|--------------------------| 


                                                       
--------------------------|--------------------------| 
--------------------------|--------------------------| 
--------------------------|--------------------------| 
--------------------------|--------------------------| 
--------------------------|--3--3--3--3--3--3--3--3--| 
--3--3--3--3--3--3--3--3--|--------------------------| 


                                                       
--------------------------|--------------------------| 
--------------------------|--------------------------| 
--------------------------|--------------------------| 
--------------------------|--------------------------| 
--------------------------|--5--5--5--5--5--5--5--5--| 
--5--5--5--5--5--5--5--5--|--------------------------| 


                                                       
--------------------------|--------------------------| 
--------------------------|--------------------------| 
--------------------------|--------------------------| 
--------------------------|--------------------------| 
--7--7--7--7--7--7--7--7--|--------------------------| 
--------------------------|--8--8--8--8--8--8--8--8--| 


                                                                           
--------------------------|--------------------------|-------------------| 
--------------------------|--------------------------|-------------------| 
--------------------------|--------------------------|-------------------| 
--------------------------|--------------------------|--4----------------| 
--------------------------|--5--5--5--5--5--5--5--5--|--2----------------| 
--5--5--5--5--5--5--5--5--|--------------------------|-------------------| 


                                                              
--------------------|--------------------|------------------| 
--------------------|--10b---------------|------------------| 
--------------------|--------------------|------------------| 
--9--------7--------|--------------------|------------------| 
--7--------5--------|--------------------|------------------| 
--------------------|--------------------|------------------| 


                                                                               
--------------------|------------------|------------------|------------------| 
--10~---------------|------------------|------------------|------------------| 
--------------------|------------------|------------------|------------------| 
--------------------|------------------|------------------|------------------| 
--------------------|------------------|------------------|------------------| 
--------------------|------------------|------------------|------------------| 


                                                                               
-----------7-----------------7--------|-----------7--------10--10-8-7--------| 
--8-7-8-10---10-8-7-8-7-8-10---10-8-7-|--8-7-8-10---10-8-7------------10-8-7-| 
--------------------------------------|--------------------------------------| 
--------------------------------------|--------------------------------------| 
--------------------------------------|--------------------------------------| 
--------------------------------------|--------------------------------------| 


                                                                               
-----------7-----------------7--------|-----------7--------10--10-8-7--------| 
--8-7-8-10---10-8-7-8-7-8-10---10-8-7-|--8-7-8-10---10-8-7------------10-8-7-| 
--------------------------------------|--------------------------------------| 
--------------------------------------|--------------------------------------| 
--------------------------------------|--------------------------------------| 
--------------------------------------|--------------------------------------| 


                                                                               
-----------7-----------------7--------|-----------7--------10--10-8-7--------| 
--8-7-8-10---10-8-7-8-7-8-10---10-8-7-|--8-7-8-10---10-8-7------------10-8-7-| 
--------------------------------------|--------------------------------------| 
--------------------------------------|--------------------------------------| 
--------------------------------------|--------------------------------------| 
--------------------------------------|--------------------------------------| 


                                                                               
-----------7-----------------7--------|-----------7--------10--10-8-7--------| 
--8-7-8-10---10-8-7-8-7-8-10---10-8-7-|--8-7-8-10---10-8-7------------10-8-7-| 
--------------------------------------|--------------------------------------| 
--------------------------------------|--------------------------------------| 
--------------------------------------|--------------------------------------| 
--------------------------------------|--------------------------------------| 


                                                                    
----------------------|----------------------|--------------------| 
------------10--------|--12------------------|--10----------------| 
--12------------------|------------12--------|--------------------| 
----------------------|----------------------|--------------------| 
----------------------|----------------------|--------------------| 
----------------------|----------------------|--------------------| 


                                                                  
------------------|----------------------|------------10--------| 
------------------|------------10--------|--12------------------| 
------------------|--12------------------|----------------------| 
------------------|----------------------|----------------------| 
------------------|----------------------|----------------------| 
------------------|----------------------|----------------------| 


                                                                                 
--12----------------|------------------|--------------------|------------------| 
--------------------|------------------|--15----------------|------------------| 
--------------------|------------------|--------------------|------------------| 
--------------------|------------------|--------------------|------------------| 
--------------------|------------------|--------------------|------------------| 
--------------------|------------------|--------------------|------------------| 


                                                       
--------------------------|--------------------------| 
--------------------------|--------------------------| 
--0--0--4--7--0--0--4--7--|--0--0--4--7--0--0--4--7--| 
--------------------------|--------------------------| 
--------------------------|--------------------------| 
--------------------------|--------------------------| 


                                                                       
----------------------------------|----------------------------------| 
----------------------------------|----------------------------------| 
--7-4-0-4-7-4-0-4-7-4-0-4-7-4-0-4-|--7-4-0-4-7-4-0-4-7-4-0-4-7-4-0-4-| 
----------------------------------|----------------------------------| 
----------------------------------|----------------------------------| 
----------------------------------|----------------------------------| 


                                                                           
--------------------------|--------------------------|-------------------| 
--------------------------|--------------------------|--8----------------| 
--0--0--4--7--0--0--4--7--|--0--0--4--7--0--0--4--7--|-------------------| 
--------------------------|--------------------------|-------------------| 
--------------------------|--------------------------|-------------------| 
--------------------------|--------------------------|-------------------| 


                                                           
------------------|------------------|------------------|| 
------------------|------------------|------------------|| 
------------------|------------------|------------------|| 
------------------|------------------|------------------|| 
------------------|------------------|------------------|| 
------------------|------------------|------------------|| 

Guitar 2 (Overdrive) 

E||------|------|------|------|------|------|------|------|------|------|------| 
B||------|------|------|------|------|------|------|------|------|------|------| 
G||------|------|------|------|------|------|------|------|------|------|------| 
D||------|------|------|------|------|------|------|------|------|------|------| 
A||------|------|------|------|------|------|------|------|------|------|------| 
E||------|------|------|------|------|------|------|------|------|------|------| 


                                                                    
------|------------------------------|----------------------------| 
------|------------------------------|----------------------------| 
------|------------------------------|----------------------------| 
------|------------------------------|-------------------7-----7--| 
------|--5--5-5-5-5-5--5--5-5-5-5-5--|--5--5-5-5-5-5--5--5--x--5--| 
------|--3--3-3-3-3-3--3--3-3-3-3-3--|--3--3-3-3-3-3--3-----------| 


                                                             
------------------------------|----------------------------| 
------------------------------|----------------------------| 
------------------------------|----------------------------| 
------------------------------|-------------------7-----7--| 
--5--5-5-5-5-5--5--5-5-5-5-5--|--5--5-5-5-5-5--5--5--x--5--| 
--3--3-3-3-3-3--3--3-3-3-3-3--|--3--3-3-3-3-3--3-----------| 


                                                             
------------------------------|----------------------------| 
------------------------------|----------------------------| 
------------------------------|----------------------------| 
------------------------------|-------------------4-----4--| 
--2--2-2-2-2-2--2--2-2-2-2-2--|--2--2-2-2-2-2--2--2--x--2--| 
--0--0-0-0-0-0--0--0-0-0-0-0--|--0--0-0-0-0-0--0-----------| 


                                                             
------------------------------|----------------------------| 
------------------------------|----------------------------| 
------------------------------|----------------------------| 
------------------------------|-------------------4-----4--| 
--2--2-2-2-2-2--2--2-2-2-2-2--|--2--2-2-2-2-2--2--2--x--2--| 
--0--0-0-0-0-0--0--0-0-0-0-0--|--0--0-0-0-0-0--0-----------| 


                                                             
------------------------------|----------------------------| 
------------------------------|----------------------------| 
------------------------------|----------------------------| 
------------------------------|-------------------7-----7--| 
--5--5-5-5-5-5--5--5-5-5-5-5--|--5--5-5-5-5-5--5--5--x--5--| 
--3--3-3-3-3-3--3--3-3-3-3-3--|--3--3-3-3-3-3--3-----------| 


                                                             
------------------------------|----------------------------| 
------------------------------|----------------------------| 
------------------------------|----------------------------| 
------------------------------|-------------------7-----7--| 
--5--5-5-5-5-5--5--5-5-5-5-5--|--5--5-5-5-5-5--5--5--x--5--| 
--3--3-3-3-3-3--3--3-3-3-3-3--|--3--3-3-3-3-3--3-----------| 


                                                                 
--------------------|---------------------|--------------------| 
--------------------|---------------------|--------------------| 
--------------------|---------------------|--------------------| 
-----------9--------|------------7--------|-----------9--------| 
--9--------7--------|--10--------5--------|--9--------7--------| 
--7-----------------|--8------------------|--7-----------------| 


                                                                  
---------------------|--------------------|---------------------| 
---------------------|--------------------|---------------------| 
---------------------|--------------------|---------------------| 
------------7--------|-----------9--------|------------7--------| 
--10--------5--------|--9--------7--------|--10--------5--------| 
--8------------------|--7-----------------|--8------------------| 


                                                                          
--------------------|---------------------|------------------|----------| 
--------------------|---------------------|------------------|----------| 
--------------------|---------------------|------------------|----------| 
-----------9--------|------------7--------|------------------|----------| 
--9--------7--------|--10--------5--------|------------------|----------| 
--7-----------------|--8------------------|------------------|----------| 


                                                                      
------------------|------------------|------------------------------| 
------------------|------------------|------------------------------| 
------------------|------------------|------------------------------| 
------------------|------------------|------------------------------| 
------------------|------------------|--2--2-2-2--2-2-2--2-2-2--2-2-| 
------------------|------------------|--0--0-0-0--0-0-0--0-0-0--0-0-| 


                                                                      
------------------------------|------------------|------------------| 
------------------------------|------------------|------------------| 
------------------------------|------------------|------------------| 
------------------------------|------------------|------------------| 
--2--2-2-2--2-2-2--2-2-2--2-2-|------------------|------------------| 
--0--0-0-0--0-0-0--0-0-0--0-0-|------------------|------------------| 


                                                               
------------------------------|------------------------------| 
------------------------------|------------------------------| 
------------------------------|------------------------------| 
------------------------------|------------------------------| 
--2--2-2-2--2-2-2--2-2-2--2-2-|--2--2-2-2--2-2-2--2-2-2--2-2-| 
--0--0-0-0--0-0-0--0-0-0--0-0-|--0--0-0-0--0-0-0--0-0-0--0-0-| 


                                                                             
------------------|------------------|------------------|------------------| 
------------------|------------------|------------------|------------------| 
------------------|------------------|------------------|------------------| 
------------------|------------------|------------------|------------------| 
------------------|------------------|------------------|------------------| 
------------------|------------------|------------------|------------------| 


                                                             
------------------------------|----------------------------| 
------------------------------|----------------------------| 
------------------------------|----------------------------| 
------------------------------|-------------------7-----7--| 
--5--5-5-5-5-5--5--5-5-5-5-5--|--5--5-5-5-5-5--5--5--x--5--| 
--3--3-3-3-3-3--3--3-3-3-3-3--|--3--3-3-3-3-3--3-----------| 


                                                             
------------------------------|----------------------------| 
------------------------------|----------------------------| 
------------------------------|----------------------------| 
------------------------------|-------------------7-----7--| 
--5--5-5-5-5-5--5--5-5-5-5-5--|--5--5-5-5-5-5--5--5--x--5--| 
--3--3-3-3-3-3--3--3-3-3-3-3--|--3--3-3-3-3-3--3-----------| 


                                                             
------------------------------|----------------------------| 
------------------------------|----------------------------| 
------------------------------|----------------------------| 
------------------------------|-------------------4-----4--| 
--2--2-2-2-2-2--2--2-2-2-2-2--|--2--2-2-2-2-2--2--2--x--2--| 
--0--0-0-0-0-0--0--0-0-0-0-0--|--0--0-0-0-0-0--0-----------| 


                                                             
------------------------------|----------------------------| 
------------------------------|----------------------------| 
------------------------------|----------------------------| 
------------------------------|-------------------4-----4--| 
--2--2-2-2-2-2--2--2-2-2-2-2--|--2--2-2-2-2-2--2--2--x--2--| 
--0--0-0-0-0-0--0--0-0-0-0-0--|--0--0-0-0-0-0--0-----------| 


                                                       
--------------------------|--------------------------| 
--------------------------|--------------------------| 
--------------------------|--------------------------| 
--------------------------|--------------------------| 
--------------------------|--------------------------| 
--5--5--5--5--5--5--5--5--|--4--4--4--4--4--4--4--4--| 


                                                                           
--------------------------|--------------------------|-------------------| 
--------------------------|--------------------------|-------------------| 
--------------------------|--------------------------|-------------------| 
--------------------------|--------------------------|--7----------------| 
--------------------------|--------------------------|--5----------------| 
--2--2--2--2--2--2--2--2--|--1--1--1--1--1--1--1--1--|-------------------| 


                                                                                 
-------------------|-------------------|------------------|--------------------| 
-------------------|-------------------|------------------|--------------------| 
-------------------|-------------------|------------------|--------------------| 
-------------------|--9----------------|------------------|--------------------| 
--9----------------|--7----------------|------------------|--7------------7----| 
--7----------------|-------------------|------------------|--5------------5----| 


                                                                 
--------------------|----------------------|-------------------| 
--------------------|----------------------|-------------------| 
--------------------|----------------------|-------------------| 
--------------------|----------------------|-------------------| 
--6------------6----|--4----------4--4--4--|--3----------------| 
--4------------4----|--2----------2--2--2--|--1----------------| 


                                                                                
-------------------|-------------------|-------------------|------------------| 
-------------------|-------------------|-------------------|------------------| 
-------------------|-------------------|-------------------|------------------| 
--7----------------|-------------------|--9----------------|------------------| 
--5----------------|--9----------------|--7----------------|------------------| 
-------------------|--7----------------|-------------------|------------------| 


                                                                
-------------------|--------------------|----------|----------| 
-------------------|--------------------|----------|----------| 
-------------------|--------------------|----------|----------| 
--5----------------|-----------7--------|----------|----------| 
--3----------------|--7--------5--------|----------|----------| 
-------------------|--5-----------------|----------|----------| 


                                                                
-------------------|--------------------|----------|----------| 
-------------------|--------------------|----------|----------| 
-------------------|--------------------|----------|----------| 
--5----------------|-----------7--------|----------|----------| 
--3----------------|--7--------5--------|----------|----------| 
-------------------|--5-----------------|----------|----------| 


                                                                           
-------------------|--------------------|----------|----------|----------| 
-------------------|--------------------|----------|----------|----------| 
-------------------|--------------------|----------|----------|----------| 
--5----------------|-----------7--------|----------|----------|----------| 
--3----------------|--7--------5--------|----------|----------|----------| 
-------------------|--5-----------------|----------|----------|----------| 


                                                                              
----------|----------|----------|----------|----------|----------|----------| 
----------|----------|----------|----------|----------|----------|----------| 
----------|----------|----------|----------|----------|----------|----------| 
----------|----------|----------|----------|----------|----------|----------| 
----------|----------|----------|----------|----------|----------|----------| 
----------|----------|----------|----------|----------|----------|----------| 


                                                                              
----------|----------|----------|----------|----------|----------|----------| 
----------|----------|----------|----------|----------|----------|----------| 
----------|----------|----------|----------|----------|----------|----------| 
----------|----------|----------|----------|----------|----------|----------| 
----------|----------|----------|----------|----------|----------|----------| 
----------|----------|----------|----------|----------|----------|----------| 


                                                                              
----------|----------|----------|----------|----------|----------|----------| 
----------|----------|----------|----------|----------|----------|----------| 
----------|----------|----------|----------|----------|----------|----------| 
----------|----------|----------|----------|----------|----------|----------| 
----------|----------|----------|----------|----------|----------|----------| 
----------|----------|----------|----------|----------|----------|----------| 


                                                      
----------|----------|------------------------------| 
----------|----------|------------------------------| 
----------|----------|------------------------------| 
----------|----------|--5--5-5-5-5-5--5--5-5-5-5-5--| 
----------|----------|--3--3-3-3-3-3--3--3-3-3-3-3--| 
----------|----------|------------------------------| 


                                                               
------------------------------|------------------------------| 
------------------------------|------------------------------| 
------------------------------|------------------------------| 
--5--5-5-5-5-5--5--5-5-5-5-5--|--5--5-5-5-5-5--5--5-5-5-5-5--| 
--3--3-3-3-3-3--3--3-3-3-3-3--|--3--3-3-3-3-3--3--3-3-3-3-3--| 
------------------------------|------------------------------| 


                                                               
------------------------------|------------------------------| 
------------------------------|------------------------------| 
------------------------------|------------------------------| 
--5--5-5-5-5-5--5--5-5-5-5-5--|--5--5-5-5-5-5--5--5-5-5-5-5--| 
--3--3-3-3-3-3--3--3-3-3-3-3--|--3--3-3-3-3-3--3--3-3-3-3-3--| 
------------------------------|------------------------------| 


                                                               
------------------------------|------------------------------| 
------------------------------|------------------------------| 
------------------------------|------------------------------| 
--5--5-5-5-5-5--5--5-5-5-5-5--|------------------------------| 
--3--3-3-3-3-3--3--3-3-3-3-3--|--5--5-5-5-5-5--5--5-5-5-5-5--| 
------------------------------|--3--3-3-3-3-3--3--3-3-3-3-3--| 


                                                             
----------------------------|------------------------------| 
----------------------------|------------------------------| 
----------------------------|------------------------------| 
-------------------7-----7--|--5--5-5-5-5-5--5--5-5-5-5-5--| 
--5--5-5-5-5-5--5--5--x--5--|--3--3-3-3-3-3--3--3-3-3-3-3--| 
--3--3-3-3-3-3--3-----------|------------------------------| 


                                                             
----------------------------|------------------------------| 
----------------------------|------------------------------| 
----------------------------|------------------------------| 
--5--5-5-5-5-5--5--7-----7--|------------------------------| 
--3--3-3-3-3-3--3--5--x--5--|--5--5-5-5-5-5--5--5-5-5-5-5--| 
----------------------------|--3--3-3-3-3-3--3--3-3-3-3-3--| 


                                                             
----------------------------|------------------------------| 
----------------------------|------------------------------| 
----------------------------|------------------------------| 
-------------------7-----7--|--5--5-5-5-5-5--5--5-5-5-5-5--| 
--5--5-5-5-5-5--5--5--x--5--|--3--3-3-3-3-3--3--3-3-3-3-3--| 
--3--3-3-3-3-3--3-----------|------------------------------| 


                                                                        
----------------------------|--------------------|--------------------| 
----------------------------|--------------------|--------------------| 
----------------------------|--------------------|--------------------| 
--5--5-5-5-5-5--5--7-----7--|-----------7--------|--9--------5--------| 
--3--3-3-3-3-3--3--5--x--5--|--5--------5--------|--7--------3--------| 
----------------------------|--3-----------------|--------------------| 


                                                             
-------------------|------------------|--------------------| 
-------------------|------------------|--------------------| 
-------------------|------------------|--------------------| 
--7----------------|------------------|-----------7--------| 
--5----------------|------------------|--5--------5--------| 
-------------------|------------------|--3-----------------| 


                                                                                 
--------------------|-------------------|------------------|-------------------| 
--------------------|-------------------|------------------|-------------------| 
--------------------|-------------------|------------------|-------------------| 
--9--------7--------|--5----------------|------------------|--7----------------| 
--7--------5--------|--3----------------|------------------|--5----------------| 
--------------------|-------------------|------------------|-------------------| 


                                                              
------------------|--------------------|--------------------| 
------------------|--------------------|--------------------| 
------------------|--7-----------------|--7-----------------| 
------------------|--5--------7--------|--5--------7--------| 
------------------|-----------5--------|-----------5--------| 
------------------|--------------------|--------------------| 


                                                                    
----------------------|----------------------|--------------------| 
----------------------|----------------------|--------------------| 
--7---------7---------|--7---------7---------|--7-----------------| 
--5----7----5----7----|--5----7----5----7----|--5--------7--------| 
-------5---------5----|-------5---------5----|-----------5--------| 
----------------------|----------------------|--------------------| 


                                                                                
--------------------|-------------------|------------------|------------------| 
--------------------|-------------------|------------------|------------------| 
--7-----------------|--7----------------|------------------|------------------| 
--5--------7--------|--5----------------|------------------|------------------| 
-----------5--------|-------------------|------------------|------------------| 
--------------------|-------------------|------------------|------------------| 


                     
------------------|| 
------------------|| 
------------------|| 
------------------|| 
------------------|| 
------------------|| 
00:00 / 00:00
Outros vídeos desta música
Repetir
Outros vídeos desta música
Compositor não encontrado.
Colaboração e revisão:
  • Taino Vieira
2.559 exibições
    • ½ Tom
    • A
    • Bb
    • B
    • C
    • Db
    • D
    • Eb
    • E
    • F
    • F#
    • G
    • Ab
  • Adicionar à lista

    0 comentários

    Ver todos os comentários

    Conseguiu tocar?

    0 Tocaram 0 Ainda não

    Grave um vídeo tocando Prelude of Oblivion e nos envie!

    Entre para oCifra Club PRO

    Tenha acesso a benefícios exclusivos no App e no Site

    • Chega de anúncios

    • Prioridade de compra em lançamentos

    • Mais recursos no app do Afinador

    • Atendimento Prioritário

    • Descontos nos produtos Cifra Club

    • Ajude a produzir mais conteúdo

    00:00 / 00:00

    Cifra Club Pro

    Aproveite o Cifra Club com benefícios exclusivos e sem anúncios
    Cifra Club Pro
    Aproveite o Cifra Club com benefícios exclusivos e sem anúncios
    OK