Lembre de Mim

Viva - A Vida É Uma Festa

Composição de: Kristen Anderson-Lopez / Robert Lopez
tom: C
[Primeira Parte]

[Tab - Primeira Parte - Estrofe 1]

Parte 1 de 2
   C                  Fm
E|---0-0-0-0-0-0-0------1-1-1-1-1-1-1-------|
B|---1-1-1-1-1-1-1------1-1-1-1-1-1-1-------|
G|---0-0-0-0-0-0-0------1-1-1-1-1-1-1-------|
D|------------------------------------------|
A|-3----------------------------------------|
E|--------------------1---------------------|

Parte 2 de 2
   C                  Fm         E
E|---0-0-0-0-0-0-0------1-1-1------0-0-0----|
B|---1-1-1-1-1-1-1------1-1-1------0-0-0----|
G|---0-0-0-0-0-0-0------1-1-1------1-1-1----|
D|------------------------------------------|
A|-3----------------------------------------|
E|--------------------1----------0----------|

           C
Lembre de mim
         Fm
Hoje eu tenho que partir
        C
Lembre de mim
      Fm           E        
Se esforce pra sorrir

[Tab - Primeira Parte - Estrofe 2]

Parte 1 de 2
   Am                 Gm         C
E|---0-0-0-0-0-0-0------3-3-3------0-0-0----|
B|---1-1-1-1-1-1-1------3-3-3------1-1-1----|
G|---2-2-2-2-2-2-2------3-3-3------0-0-0----|
D|------------------------------------------|
A|-0-----------------------------3----------|
E|--------------------3---------------------|

Parte 2 de 2
   F7M                Fm        G
E|---0-0-0-0-0-0-0------1-1-1-----3-3-3-----|
B|---1-1-1-1-1-1-1------1-1-1-----3-3-3-----|
G|---2-2-2-2-2-2-2------1-1-1-----0-0-0-----|
D|-3----------------------------------------|
A|------------------------------------------|
E|--------------------1---------3-----------|

       Am
Não importa a distância
       Gm          C
Nunca vou te esquecer
    F7M
Cantando a nossa música
    Fm             G      
O amor só vai crescer

[Segunda Parte]

[Tab - Segunda Parte - Estrofe 1]

Parte 1 de 2
   C                  Fm
E|---0-0-0-0-0-0-0------1-1-1-1-1-1-1-------|
B|---1-1-1-1-1-1-1------1-1-1-1-1-1-1-------|
G|---0-0-0-0-0-0-0------1-1-1-1-1-1-1-------|
D|------------------------------------------|
A|-3----------------------------------------|
E|--------------------1---------------------|

Parte 2 de 2
   C                  Gm         C
E|---0-0-0-0-0-0-0------3-3-3------0-0-0----|
B|---1-1-1-1-1-1-1------3-3-3------1-1-1----|
G|---0-0-0-0-0-0-0------3-3-3------0-0-0----|
D|------------------------------------------|
A|-3-----------------------------3----------|
E|--------------------3---------------------|

           C
Lembre de mim
          Fm
Não sei quando vou voltar
        C
Lembre de mim
          Gm           C
Se um violão você escutar

[Tab - Segunda Parte - Estrofe 2]

Parte 1 de 2
   F7M                Em   E    Am
E|---0-0-0-0-0-0-0----0----0----0-----------|
B|---1-1-1-1-1-1-1----0----0----1-----------|
G|---2-2-2-2-2-2-2----0----1----2-----------|
D|-3------------------2----2----2-----------|
A|--------------------2----2----0-----------|
E|--------------------0----0----------------|

Parte 2 de 2
   G#     Fm     C 
E|-4--4---1------0---------------------------|
B|-4--4---1------1---------------------------|
G|-5--5---1------0---------------------------|
D|-6--6----------2---------------------------|
A|---------------3---------------------------|
E|--------1----------------------------------|

F7M
Ele com seu triste canto
 Em     E    Am
Te acompanhará
G#                      
   E até que eu possa te abraçar
     Fm    C       
Lembre de mim

Página 1 / 1

Letras e título
Acordes e artista

resetar configurações
OK