Cifra Club

É Melhor Pensar Duas Vezes

Vivendo do Ócio

Cifra: Principal (violão e guitarra)
tom: D
Intro: F#5  A5  F#5  A5  F#5  A5  D5  C#5 (2x)

Verso: C#5  B5  F#5  A5

Refrão:
B5                        C#5
a gente faz aqui e paga aqui
                                 D5
e o troco vem todo em moedas
     C#5
e você não pode trocar

B5           C#5
Se falar comigo de novo
F#5                         A5
Posso até te dar um soco!
B5                              D5       C#5            F#5
acho melhor não   tenho amor a minhas mãos

( D5  C#5 )

Solo: F#  A  B  D  C#
Solo:
E|--------------------------------------|
B|--10----------------------------------|
G|-----11-11-11-11-9-9-9-11-11-11-------|   (2x)
D|--------------------------------------|
A|--------------------------------------|
E|--------------------------------------|

E|--------------------------------------------------|
B|--10----10--12-14-12-10-12-10------------------10-|
G|-----11-----------------------11-11-11-11-9-11----|
D|--------------------------------------------------|
A|--------------------------------------------------|
E|--------------------------------------------------|

E|----------------------------------------------------------------------|
B|-----10-12~14-14-14-14-14-14-14-14-14-14~12-10-12-10-10------10----10-|
G|--11----------------------------------------------------9-11----11----|
D|----------------------------------------------------------------------|
A|----------------------------------------------------------------------|
E|----------------------------------------------------------------------|

E|----------------------------------------------|
B|-10-10-10-12-14-12-10-12-12--14-14-14-12-10~5-|
G|-11-11----------------------------------------|
D|----------------------------------------------|
A|----------------------------------------------|
E|----------------------------------------------|

B5                                 C#5
Acho melhor não, prefiro ir pro bar
D5        C#5       B5     A5       F#5
enxer a cara até

( F#5 )
00:00 / 00:00
Outros vídeos desta música
Repetir
Outros vídeos desta música
Composição de Jajá
Colaboração e revisão:
  • Rodrigo Sicarelli
  • ramon gonçalves
9.377 exibições
    • ½ Tom
    • A
    • Bb
    • B
    • C
    • Db
    • D
    • Eb
    • E
    • F
    • F#
    • G
    • Ab
  • Adicionar à lista

    0 comentários

    Ver todos os comentários

    Conseguiu tocar?

    5 Tocaram 0 Ainda não

    Grave um vídeo tocando É Melhor Pensar Duas Vezes e nos envie!

    Entre para oCifra Club PRO

    Tenha acesso a benefícios exclusivos no App e no Site

    • Chega de anúncios

    • Prioridade de compra em lançamentos

    • Mais recursos no app do Afinador

    • Atendimento Prioritário

    • Descontos nos produtos Cifra Club

    • Ajude a produzir mais conteúdo

    00:00 / 00:00

    Cifra Club Pro

    Aproveite o Cifra Club com benefícios exclusivos e sem anúncios
    Cifra Club Pro
    Aproveite o Cifra Club com benefícios exclusivos e sem anúncios
    OK