Cifra Club

Meu Precioso

Vivendo do Ócio

Cifra: Principal (violão e guitarra)
tom: D
(intro)  F#5  A5  B5  D5
(Riff 1)
E|-------5--7/9--7--5----------5--------------------
B|-5--7---------------7--5--7-----7--5--77--------------------------
(2° parte do riff 1 )
E|-5555--6-6/8-6-5----------5-----------------------
B|-----------------7--5--7-----7--5--7--5--2-------

(riff 2)
E|----------------------------------------------------------------------------------------
B|----------------5--3--5--------------5--3--5--------------------------------------------
G|----------------------------------------------------------------------------------------
D|----- 4--4--4--------------7--7--7------------------------------------------------------

(riff 3)
E|----------------------------------------------------------------------------------------------
B|------------12---------12--------10---------------------15-----------15----------13-----------
G|-------11------11---------11--------11-------------14-----14-----------14----------14---------
D|----9---------------9----------9----------9------12-------------12-----------12----------12---

( F#5  A5 )

(riff 2)
As luzes me mostram a direção que eu devo ir
tento imaginar aonde você deve estar nesse momento
A música no rádio me faz sentir, ter você aqui por um instante

(riff 3)
Ah, não devia ter sido tão rude
Não devia ter bebido tanto

A                        Bm              D
Mas nada justifica esse ato tão cruel
Bm                                     A
eu entendo sua raiva meu bem
                         Bm                                  D                   C#
Você não tinha o direito de me deixar daquele jeito

( F#5  A5 ) (3x)
( D C# )

(riff 1)
O café gelado me dá mais algumas horas
eu fico esperando, que você me traga de volta
sorrindo, dizendo que tudo não passou
de brincadeira

(riff 2)
É nisso que tento acreditar
meu bem, é tudo que eu quero acreditar

A                           Bm                           D
Eu te dou meu coração como resgate
                          Bm
e assim ficamos em empate
A                      Bm
Poderia me xingar, me bater, me difamar
D                                            C#
mas roubar o meu Blue Label, foi pior que uma punhalada no peito

( F#5  A5 ) (4x)
( F#5  A5  B5 ) (2x)
( D5 C#5 )

A                          Bm
Eu te dou meu coração como resgate
D                       Bm
e então ficamos em empate
A                                    Bm
É justo que não aceite a minha sugestão
         D                          C#
o seu vício vale mais... vale mais... Vale mais que o meu coração

(final)  F#5  A5 (3x)
         D5 C#5
00:00 / 00:00
Outros vídeos desta música
Repetir
Outros vídeos desta música
Composição de Jajá Cardoso
Colaboração e revisão:
  • Natiel Alves
  • Andre Bahiense
28.210 exibições
    • ½ Tom
    • A
    • Bb
    • B
    • C
    • Db
    • D
    • Eb
    • E
    • F
    • F#
    • G
    • Ab
  • Adicionar à lista

    0 comentários

    Ver todos os comentários

    Conseguiu tocar?

    14 Tocaram 0 Ainda não

    Grave um vídeo tocando Meu Precioso e nos envie!

    Entre para oCifra Club PRO

    Tenha acesso a benefícios exclusivos no App e no Site

    • Chega de anúncios

    • Prioridade de compra em lançamentos

    • Mais recursos no app do Afinador

    • Atendimento Prioritário

    • Descontos nos produtos Cifra Club

    • Ajude a produzir mais conteúdo

    00:00 / 00:00

    Cifra Club Pro

    Aproveite o Cifra Club com benefícios exclusivos e sem anúncios
    Cifra Club Pro
    Aproveite o Cifra Club com benefícios exclusivos e sem anúncios
    OK