Cifra Club

O Mundo É Um Parque

Vivendo do Ócio

Cifra: Principal (violão e guitarra)
tom: C
Intro:

E|-5-5-x-x-1-1-x-x----------------|            
B|-5-5-x-x-1-1-x-x----------------|            
G|-5-5-x-x-2-2-x-x--------9-7-----|         
D|-7-7-x-x---------7777-10---10-7-|           
A|--------------------------------|            
E|--------------------------------|   

E|-5-5-x-x-1-1-x-x------------------|            
B|-5-5-x-x-1-1-x-x------------------|            
G|-5-5-x-x-2-2-x-x---- ---x-9-x-7---|         
D|-7-7-x-x---------7777-10-------x-7|           
A|----------------------------------|            
E|----------------------------------| 

Verso:
Am
Eu te pergunto
     F
O que é mais importante pra você
  Am
Do que você mais quer saber
  F
Do que você precisa pra crescer
Am                               F
Dormir, acordar, trabalhar, fazer um dinheiro
Esse é o seu direito
     Am
Mas a vida não foi feita pra se bitolar
         F
Tem que desenvolver, se multiplicar
Dm
  Se eu pegar uma reta
  
  (1° Riff pré-refrão)
    "Pode partir do lado b ao clichê" 
  E|----------5---------------------|             
  B|----------5---------------------|            
  G|----------5---------------------| (2x)         
  D|----------7---------------------|           
  A|----------7---------------------|            
  E|5-5-5-55555---------------------|   

       Dm
O que você sabe
O que você sabe

 (2° Riff pré-refrão)
  E|-----5-------------------------|             
  B|-----5-------------------------|            
  G|-----5-------------------------| (2x)         
  D|-----7-------------------------|           
  A|-----7-------------------------|            
  E|-55555-5-5-5-------------------|
      Dm
O que você sabe
O que você sabe

Refrão:
[Riff executado durante o primeiro verso do refrão]
     "O mundo é um eterno parque"
  E|-------------------------------|             
  B|-------------------------------|            
  G|-------------------------------| (2x)         
  D|-------------------------------|           
  A|----3h5-3-0--------------------|            
  E|1-11-------3-------------------|
  
  Dm
As pessoas se esquecem disso quando crescem

[repete o riff]Se esquecem de viver
Dm
Se esquecem de viver
 
Intro:

E|-5-5-x-x-1-1-x-x----------------|            
B|-5-5-x-x-1-1-x-x----------------|            
G|-5-5-x-x-2-2-x-x--------9-7-----|         
D|-7-7-x-x---------7777-10---10-7-|           
A|--------------------------------|            
E|--------------------------------|   

E|-5-5-x-x-1-1-x-x------------------|            
B|-5-5-x-x-1-1-x-x------------------|            
G|-5-5-x-x-2-2-x-x---- ---x-9-x-7---|         
D|-7-7-x-x---------7777-10-------x-7|           
A|----------------------------------|            
E|----------------------------------| 
 
 Am
 Sentir, degustar, ter alguém,
     F
Cultivar amigos, mil e um motivos
Am              F
Para amar, pra sonhar pra viver
Dm
  Se eu pegar uma reta

  [repete 1° Riff do pré-refrão] 
  Pode partir do lado b ao clichê
  
      Dm
O que você sabe
O que você sabe

 [repete 2°riff do pré-refrão]
 
      Dm
O que você sabe
O que você sabe

[Repete Riff executado durante o primeiro verso do refrão]
     O mundo é um eterno parque
         Dm
As pessoas se esquecem disso quando crescem
[repete o riff]e antes de viver
Dm
Já envelhecem


"Se esse caminho não fosse uma piada
Eu não escolheria o outro lado da estrada
O lado b dessa estrada"
  E|----------------------------------------------------------------------|             
  B|----------------------------------------------------------------------|            
  G|----------------------------------9-9-9-9-12-12-12-9-9-9-7-7-9-9-7-7--| (2x)         
  D|7-7-7-7-10-10-10-7-7-7-5-5-7-7-5-5------------------------------------|           
  A|----------------------------------------------------------------------|            
  E|----------------------------------------------------------------------|
  
  [Solo]
  E|---------------------------------------------------|             
  B|----15-----15--------------------------------------|            
  G|--12-----12---12-9--------12-9---------------------|         
  D|14-----14---------12-10-10----12-10-10-10h12-10h12-|           
  A|---------------------------------------------------|            
  E|---------------------------------------------------|
  
  E|---------------------------------------------------------------|             
  B|------15------15-----------------------------------------------|            
  G|--12------12------12---12-9--------12-9------------------------|          
  D|14--14--14--14--14--14-----12-10-10----12-10-10-10h12-10h12----|           
  A|---------------------------------------------------------------|            
  E|---------------------------------------------------------------|
  
  E|----------------------------------------------------------------------|             
  B|----------------------------------------------------------------------|            
  G|----------------------------------9-9-9-9-12-12-12-9-9-9-7-7-9-9-7-7--| (2x)         
  D|7-7-7-7-10-10-10-7-7-7-5-5-7-7-5-5------------------------------------|           
  A|----------------------------------------------------------------------|            
  E|----------------------------------------------------------------------|
00:00 / 00:00
Outros vídeos desta música
Repetir
Outros vídeos desta música
Compositor não encontrado.
Colaboração e revisão:
  • Gabriel Marques
892 exibições
    • ½ Tom
    • A
    • Bb
    • B
    • C
    • Db
    • D
    • Eb
    • E
    • F
    • F#
    • G
    • Ab
  • Adicionar à lista

    0 comentários

    Ver todos os comentários

    Conseguiu tocar?

    1 Tocaram 0 Ainda não

    Grave um vídeo tocando O Mundo É Um Parque e nos envie!

    Entre para oCifra Club PRO

    Tenha acesso a benefícios exclusivos no App e no Site

    • Chega de anúncios

    • Prioridade de compra em lançamentos

    • Mais recursos no app do Afinador

    • Atendimento Prioritário

    • Descontos nos produtos Cifra Club

    • Ajude a produzir mais conteúdo

    00:00 / 00:00

    Cifra Club Pro

    Aproveite o Cifra Club com benefícios exclusivos e sem anúncios
    Cifra Club Pro
    Aproveite o Cifra Club com benefícios exclusivos e sem anúncios
    OK