Cifra Club

Por Um Punhado de Reais

Vivendo do Ócio

Cifra: Principal (violão e guitarra)
tom: C
Intro 2x: Am Am Em Dm


 2X:   Am                     Am                      Em          Dm
E|----------------------------------------|------------------------------------
B|----------------------------------------|------------------------------------
G|----------------------------------------|------------------------------------
D|------------2--------2-------------2----|----2--3--2-------------------------
A|----0----3--------------3--0----3-------|---------------5--3--5----3----5----
E|----------------------------------------|------------------------------------


Am
Em frente uma estrada
                   Em     E
Um curvo caminho a trilhar
Am
Nas mãos uma guitarra
                   Em     E
E o necessário pra seguir
Dm
Não me bastou comer e dormir
Am
Preciso me expandir pra me achar
        E          E7              F7+
Vai ser bom, bem melhor se você me acompanhar

(REFRÃO)
F7+
Eu também ja senti medo,
Como olhar de um muro
C7+
baixo, pra me proteger, mas nem sei de quem
F7+
É melhor ter seu apreço
É melhor ter mais
C7+
espaço, você tem que ter, você tem que ter



      Am
E|---------------------|
B|---------------------|
G|---------------------|
D|------------2--------|
A|----0----3-----------|
E|---------------------|


Am
Teimando em duvidar
                      Em             E
O melhor está no mais simples que puder imaginar
Am
Só pra te completar, não da pra insistir
Em          E
Bem na hora certa você vai sentir
Dm
Que o que me falta pra seguir
        Am
Precisa se expandir pra clarear
        Em          E              F7+
Vai ser bom, bem melhor se você me acompanhar

(REFRÃO)
F7+
Eu também ja senti medo,
Como olhar de um muro
C7+
baixo, pra me proteger, mas nem sei de quem
F7+
É melhor ter seu apreço
É melhor ter mais
C7+
espaço, você tem que ter, você tem que ter


      Am
E|---------------------|
B|---------------------|
G|---------------------|
D|------------2--------|
A|----0----3-----------|
E|---------------------|

SOLO - Am E

 2X:   Am                     Am
E|------------------------------------|
B|------------------------------------|
G|------------------------------------|
D|------------2--------3-2------------|
A|----0-0-3-0------0-0--------0-0-3-3-|
E|------------------------------------|

 2X:   Em                     Em
E|----------------------------------|
B|----------------------------------|
G|-------------------0--------------|
D|--------3-2----------2----2-2-0-2-|
A|----------------------------------|
E|----0-0--------0-0----------------|


Repete e segunda guitarra:

 2X:   Am                     Am
E|-----------------------------------|
B|-----------5--------6-5------------|
G|--------5----------------------5-5-|
D|----7-7---7-----7-7--------7-7-----|
A|-----------------------------------|
E|-----------------------------------|

 2X:   Em                     Em
E|----------------------------------|
B|--------6-5--------8-5----5-5---5-|
G|------------------------------7---|
D|----X-X--------X-X----------------|
A|----X-X--------X-X----------------|
E|----X-X--------X-X----------------|

Contrabaixo:        
G|--------------------------------|
D|--------------------------------|
A|0-0-0-0-0-0-0-0-0-0-0-0-0-0-0-0-|
E|--------------------------------|
                            Eu também já senti medo...

(REFRÃO)
F7+
Eu também ja senti medo,
Como olhar de um muro
C7+
baixo, pra me proteger, mas nem sei de quem
F7+
É melhor ter seu apreço
É melhor ter mais
C7+                    Am      G
espaço, você tem que ter, você tem que ter


...VocÊ tem que ter                        
E|---------------------------|----------------------------|
B|----6--6--6--6--6--6--6--6-|----10-10-10-10-10-10-10-10-|
G|----x--x--x--x--x--x--x--x-|----x--x--x--x--x--x--x--x--|
D|----3--3--3--3--3--3--3--3-|----7--7--7--7--7--7--7--7--|
A|---------------------------|----------------------------|
E|---------------------------|----------------------------|

Final:
       Am                     Am
E|----------------------------------------------------|
B|----------------------------------------------------|
G|----------------------------------------------------|
D|------------2-222-222-222-------------2-222-222-222-|
A|----0-000-3---------------3-000-000-3---------------|
E|----------------------------------------------------|

       Em                     Em
E|-----------------------------------|----------------------|
B|-----------------------------------|----------------------|
G|-----------------------------------|----------------------|
D|----2-3-222-222--------------------|--------7-7------7-7--|
A|----------------5-3-555-555---3--5-|--------7-7------7-7--|
E|-----------------------------------|--------5-5------5-5--|
00:00 / 00:00
Outros vídeos desta música
Repetir
Outros vídeos desta música
Compositor não encontrado.
Colaboração e revisão:
  • Guilherme Cianfa
  • Rafael Samora
9.524 exibições
    • ½ Tom
    • A
    • Bb
    • B
    • C
    • Db
    • D
    • Eb
    • E
    • F
    • F#
    • G
    • Ab
  • Adicionar à lista

    0 comentários

    Ver todos os comentários

    Conseguiu tocar?

    12 Tocaram 0 Ainda não

    Grave um vídeo tocando Por Um Punhado de Reais e nos envie!

    Entre para oCifra Club PRO

    Tenha acesso a benefícios exclusivos no App e no Site

    • Chega de anúncios

    • Prioridade de compra em lançamentos

    • Mais recursos no app do Afinador

    • Atendimento Prioritário

    • Descontos nos produtos Cifra Club

    • Ajude a produzir mais conteúdo

    00:00 / 00:00

    Cifra Club Pro

    Aproveite o Cifra Club com benefícios exclusivos e sem anúncios
    Cifra Club Pro
    Aproveite o Cifra Club com benefícios exclusivos e sem anúncios
    OK