Cifra Club

Aprenda

Rock Pub Baby

Vivendo do Ócio

Cifra: Principal (violão e guitarra)
Tom: A
E|---------------------------------
B|---------------------------------
G|--5/7---7*-----------------------
D|--5/7---7*-----------------------
A|--3/5---5*-----------------------
E|---------------------------------

Você tem que abafar as cordas enquanto dá as palhetadas.
E|---------------------------------
B|---------------------------------
G|--5/7-7-7-5/10-------------------
D|--5/7-7-7-5/10-------------------
A|--3/5-5-5-3/8--------------------
E|---------------------------------

Riff:
E|---------------------------------
B|---------------------------------
G|---------------------------------
D|---------------------------------
A|--3h5-5--------------------------
E|---------------------------------

(Riff)
Eu tô cansado, desnorteado
Você me fez me desgastar
Como era o nome do lugar?
Estou tentando me lembrar

A5
Também esqueci seu nome
D5                                     G
Imagine se as paredes do PUB pudessem falar?
A5
Prefiro nem comentar...
G5
Eu sei que você me quer!
A5
Eu sei o que você quer!

Rock'n'Roll, baby!
E|---------------------------------
B|---------------------------------
G|--5/7-7-7-5/10-------------------
D|--5/7-7-7-5/10-------------------
A|--3/5-5-5-3/8--------------------
E|---------------------------------

(Riff)
Eu tomo uma, eu tomo três
Você me esquenta outra vez
Traz a tequila, limão e sal
Vamos fazer um revival

A5
Está todo mundo a conspirar
D5
Estou tentando me esforçar
A5
Tô nem aí pro teu nome
D5
You rock me, I know you, let's go, I am rock you too!
G5         A
Oh, yeah! That´s cool!
A5
Estou vendo tudo se duplicar
D5
Minha cabeça vai estourar
G5
Meus olhos queimam, de onde veio essa mulher?
A5
Eu sei o que você quer!

Rock'n'Roll, baby!
E|---------------------------------
B|---------------------------------
G|--5/7---7------------------------
D|--5/7---7------------------------
A|--3/5---5------------------------
E|---------------------------------

E|---------------------------------
B|---------------------------------
G|--5/7-7-7-5/10-------------------
D|--5/7-7-7-5/10-------------------
A|--3/5-5-5-3/8--------------------
E|---------------------------------

E|---------------------------------
B|---------------------------------
G|-12-10-8-10-5-7------------------
D|-12-10-8-10-5-7------------------
A|-10-8--6-8--3-5------------------
E|---------------------------------
Composição de Jajá Cardoso
Colaboração e revisão:
  • Samuel SIlva
4.885 exibições
    • ½ Tom
    • A
    • Bb
    • B
    • C
    • Db
    • D
    • Eb
    • E
    • F
    • F#
    • G
    • Ab
  • Adicionar à lista

    0 comentários

    Mostrar mais comentários

    Conseguiu tocar?

    3 Tocaram 0 Ainda não

    Grave um vídeo tocando Rock Pub Baby e mande pra gente!

    00:00 / 00:00
    outros vídeos desta música
    repetir qualidade Automático
    Outros vídeos desta música
    00:00 / 00:00
    Automático

    Cifra Club Pro

    Aproveite o Cifra Club com benefícios exclusivos e sem anúncios
    7 dias grátis
    Cifra Club Pro
    Aproveite o Cifra Club com benefícios exclusivos e sem anúncios
    7 dias grátis
    OK