Cifra Club

Terra Virar Mente

Vivendo do Ócio

Cifra: Principal (violão e guitarra)
tom: D
Riff 1 :
G |--66-44-------66-44-------------|
D |--------88-44-------88-44--8----|
A |---------------------------8----|
E |---------------------------6----|

Riff 2 :
G |--66-44---------------------------|
D |--------88-44-88-66-88-66-44--6---|
A |------------------------------6---|
E |------------------------------4---|

Intro 2x
E |---------------------------------------------------------------------------|
B |---------------------------------------------------------------------------|
G |-11-10-6-8-6-8-6-8-6-8-8-6-4--11-11-4-4-11---------------------------------|
D |-11-10-6-8-6-8-6-8-6-8-8-6-4--11-11-4-4-11---------------------------------|
A |-9--8--4-6-4-6-4-6-4-6-6-4-2--9--9--2-2-9----------------------------------|
E |---------------------------------------------------------------------------|

Depois da intro, tem a "preparação” antes de começar a letra em si

D |-11-10-6-8---|
A |-11-10-6-8---|
E |-9--8--4-6---|

(Deixa soar no D#5)

D#5
Uma vida sem satisfações
D#5              D#5 D#5 D#5
Um olhar insatisfeito
     Riff 1
Destrói minhas razões

D#5
Se eu te digo está certo
D#5                    D#5 D#5 D#5  Riff 2
Amanhã posso acordar errado ahaha

C#5
Como um pássaro sem assas
C#5
Com a vida sem destino

D#5
Cair é aprender a seguir
D#5              D#5 D#5 D#5         Riff 1
Encontrei alguém para poder me distrair

D#5
Mas esse alguém um dia se foi
D#5                                  Riff 2
e todo meu amanhã mais um vez quebrou

C#5
Como um pássaro sem assas
C#5
Vive a vida sem destino

B5                   C#5
Meus passos segue em frente
D#5
Faz a terra virar mente
B5       C#5
Ao atirar a pedra
D#5
Encontrei a minha reta
B5               C#5
Não há destruição aqui
D#5
A cada meia hora ver brilhar
B5               C#5
Teu sorriso ao acordar
D#5
Não mais admirar

B5  C#5  D#5

|Repete a Intro, a preparação e deixa soar no D#5|

D#5
Pare pra pensar por dois segundos
D#5
Será que valeu a pena
  Riff 1
Achar um novo mundo

D#5
Máquinas que seguem a construir
D#5
Transformando o verde em cinza
  Riff 2
Eu tento não notar

C#5
Não me diga que esse filme
C#5
Não terá um final feliz

B5                   C#5
Meus passos segue em frente
D#5
Faz a terra virar mente
B5       C#5
Ao atirar a pedra
D#5
Encontrei a minha reta
B5               C#5
Não há destruição aqui
D#5
A cada meia hora ver brilhar
B5               C#5
Teu sorriso ao acordar
D#5
Não mais admirar

B5  C#5  D#5

E |---------------------------------------------------------------------------|
B |---------------------------------------------------------------------------|
G |-11-10-6-8-8-8-8-6-44444444------------------------------------------------|
D |-11-10-6-8-8-8-8-6-44444444--888-999-666-99-88-66-4-4-4-4-4-4-4-4-4-4-4----|
A |-9--8--4-6-6-6-6-4-22222222--888-999-666-99-88-66-2-2-2-2-2-2-2-2-2-2-2----|
E |-----------------------------666-777-444-77-66-44-2-2-2-2-2-2-2-0-2-0-2----|

(Faça mais 3x :
D |-4-4-4-4-4-4-4-4-4-4-4----|
A |-2-2-2-2-2-2-2-2-2-2-2----|
E |-2-2-2-2-2-2-2-0-2-0-2----| )

Solo p/ final :
E |-------------------------------------------------------|
B |-------------------------------------------------------|
G |-------2-4-2-----2/7-6-4-2-----2-4-2-----2/7-6-4-2-----|
D |---4444-------444----------4444-------444--------------|
A |-------------------------------------------------------|
E |-------------------------------------------------------|

E |----------------------------------------------------------------------------------|
B |----------------------------------------------------------------------------------|
G |----------2----------2----------2----------2--------2-2-4-2-------2-2-2/7--6-4-2--|
D |4-4-4-4-2--4-4-4-4-2--4-4-4-4-2--4-4-4-4-2--4-4-4----------4-4-4----------------4-|
A |----------------------------------------------------------------------------------|
E |----------------------------------------------------------------------------------|
00:00 / 00:00
Outros vídeos desta música
Repetir
Outros vídeos desta música
Composição de Luca Bori
Colaboração e revisão:
  • Rodrigo Sicarelli
14.767 exibições
    • ½ Tom
    • A
    • Bb
    • B
    • C
    • Db
    • D
    • Eb
    • E
    • F
    • F#
    • G
    • Ab
  • Adicionar à lista

    0 comentários

    Ver todos os comentários

    Conseguiu tocar?

    7 Tocaram 0 Ainda não

    Grave um vídeo tocando Terra Virar Mente e nos envie!

    Entre para oCifra Club PRO

    Tenha acesso a benefícios exclusivos no App e no Site

    • Chega de anúncios

    • Prioridade de compra em lançamentos

    • Mais recursos no app do Afinador

    • Atendimento Prioritário

    • Descontos nos produtos Cifra Club

    • Ajude a produzir mais conteúdo

    00:00 / 00:00

    Cifra Club Pro

    Aproveite o Cifra Club com benefícios exclusivos e sem anúncios
    Cifra Club Pro
    Aproveite o Cifra Club com benefícios exclusivos e sem anúncios
    OK