El Amor de Mi Tierra

Carlos Vives

Composição de: Martin Madera
tom: G Afinação: E A D G B E
Intro:  x2

    G                 D 
E|--3-----5--3-----5--2-----5--2-----5--|
B|--3---3----3---3----3---3----3---3----|
G|--0-0------0-0------2-2------2-2------|   
D|--------------------0--------0--------|
A|--------------------------------------|
E|--3--------3--------------------------|

G                D                                 G
Para adorarte con esa locura, que solo tiene el amor de mi tierra(bis)
G                      Am                                     G
voy a regalarte en un beso la luna, voy acariciarte bajo el frio de la sierra(bis)
               C                  D                      Bm   Em
y te dare una noche de besos y luceros, como es la noche mia
               C                    D                     Bm    G.....
la cascara de besos de donde bebo a sorbos tu amor y tu poesia

CORO:    
   G                  Am                                       G
quiero que lleves en ti la vida mia, quiero que te llene del amor de mi tierra
quiero que lleves en ti la vida mia, que tengo prendida del amor de mi tierra

SOLO: Acompañado con los acordes del puente...
  
E|--7-10-12-12-8-8-8-8-7-----------8-10-8-7-7-7-7---------7-|
B|-8--------------------10-8-7---10---------------10-8-10---|
G|------------------------------7---------------------------|  (BIS)
D|----------------------------------------------------------|
A|----------------------------------------------------------|
E|----------------------------------------------------------|

E|-7-7-7-8-8-8---------7-7-7------------|
B|-------------10-(x8)-------8-8-8-8-8--|
G|--------------------------------------| (BIS)
D|--------------------------------------|
A|--------------------------------------|
E|--------------------------------------|

PUENTE:
C..D..Bm..Em..(G)x2
Am..G..x2

G                D                                     G 
o regalarte el olor de los campos, que solo tiene la flor de mi tierra(bis)
G                   Am                                  G
voy a robarte en secreto la noche, voy a ser tuyo por siempre mi negra(bis)
G                Am                                              G
sere la brisa fresca que juega entre tu falda y el sol de medio dia
G               Am                                              G
el agua, la corriente, la musica que cantas cuando te vuelves mia
                C                     D                   Bm  Em 
y te dare una noche de cumbias y luceros como es la noche mia
                C                    D                   Bm      G......
la cascara de besos de donde bebo a sorbos tu amor y tu poesia

Coro x2
Puente
Coro
Página 1 / 1

Letras e título
Acordes e artista

resetar configurações
OK