Cifra Club

Aprenda

Seja Feliz do Seu Modo ( Acustica )

Vouten

Cifra: Principal (violão e guitarra)
tom: E
INTRO 
      E                                  A
E|----7---------------------       --------------------
B|---------9----------------  (4x) -----10-------------
G|------9-----9-------------       ---9----9-----------     (8x)
D|--------------------------       --------------------
A|--------------------------       --------------------
E|--------------------------       --------------------

E    
Se nada mais der certo então
A
pego minhas coisas vou voltar
E                     A 
e nunca poderão dizer que tive medo de tentar ...

 E                                        A 
E|----7---------------------      --------------------
B|---------9---------------- (4x) -----10-------------
G|------9-----9-------------      ---9----9-----------   (4x)
D|--------------------------      --------------------
A|--------------------------      --------------------
E|--------------------------      --------------------

E
eu não iria aguentar 
A                    E
ficar aqui e esperar  ver tudo acontecer sem ao menos me mover

E    (4x)

Refrão : 
E                      A 
Seja feliz do seu modo pois ninguem faz por você
E                 A
ter medo de tentar é bem pior do que errar 

E    (2x)

E                   A                         E                A
pare de se preocupar porque eles não vão parar de falar em você
A
tudo oq você tem 

          E                              A
E|----7---------------------    --------------------
B|---------9---------------- 4x -----10-------------
G|------9-----9-------------    ---9----9-----------    (8x)
D|--------------------------    --------------------
A|--------------------------    --------------------
E|--------------------------    --------------------

E|------------------------------------                    e por todo esse tempo eu sempre me importei
B|------------------------------------                   sempre me preocupei em ser feliz do meu modo
G|------------9------------9----------        (6x)
D|--------6------6-----6------6-------
A|----7-------------0-----------------
E|------------------------------------

A
agora se você quiser ficar ai e esperar 
ao invés de fazer tudo acontecer...

            E                          A
E|----7---------------------    --------------------
B|---------9---------------- 4x -----10-------------
G|------9-----9-------------    ---9----9-----------     (4x)
D|--------------------------    --------------------
A|--------------------------    --------------------
E|--------------------------    --------------------

E                      A 
Seja feliz do seu modo pois ninguem faz por você
E                 A
ter medo de tentar é bem pior do que errar 

A   (2x) 

E                   A                         E                A
pare de se preocupar porque eles não vão parar de falar em você
A
tudo que aconteceu


           E                            A
E|----7---------------------    --------------------
B|---------9---------------- 4x -----10-------------
G|------9-----9-------------    ---9----9-----------     (8x)
D|--------------------------    --------------------
A|--------------------------    --------------------
E|--------------------------    --------------------

E   (4x)
Composição de Vouten
Colaboração e revisão:
  • rodrigo moraes
933 exibições
    • ½ Tom
    • A
    • Bb
    • B
    • C
    • Db
    • D
    • Eb
    • E
    • F
    • F#
    • G
    • Ab
  • Adicionar à lista

    0 comentários

    Ver todos os comentários

    Conseguiu tocar?

    0 Tocaram 0 Ainda não

    Grave um vídeo tocando Seja Feliz do Seu Modo ( Acustica ) e nos envie!

    00:00 / 00:00
    Outros vídeos desta música
    Repetir Qualidade Automático
    Outros vídeos desta música
    00:00 / 00:00
    Automático

    Cifra Club Pro

    Aproveite o Cifra Club com benefícios exclusivos e sem anúncios
    Cifra Club Pro
    Aproveite o Cifra Club com benefícios exclusivos e sem anúncios
    OK