Cifra Club

Adoradores do Rei

Voz da Verdade

Cifra: Principal
exibições 69.368
Tom: F
F     C        Dm    Bb          F        C
Adoradores do Rei levantem suas vozes bem alto
Dm    C/E        F   Bb          F   C
Adoradores do Rei somos um só coração

     F                       A#
Vou levando o seu amor e também a sua paz
      F               C
Para todos corações abençoar
           F                    Bb
Pra que o mundo possa ver a verdade e nada mais
    Dm           C
O amor que satisfaz
Dm A#      C
A   dorai o Rei

F     C/E        Dm    Bb          F        C
Adoradores do Rei levantem suas vozes bem alto
Dm    C/E        F   Bb          F   C
Adoradores do Rei somos um só coração

       F                       Bb
Vamos todos dar as mãos num lugar celestial
     F                 C
E os anjos cantarão está canção
       F                    A#
Se houver dois corações se tornarão em um
       Dm          C
Basta só louvar a Deus
Dm A#        C
A   dorai o Rei

F     C        Dm    Bb          F        C
Adoradores do Rei levantem suas vozes bem alto
Dm    C/E        F   Bb          F   C
Adoradores do Rei somos um só coração

[Solo] F  G

E|-----------------8-8-8/10-10/12-12-13-13-12-12-10-|
B|1-1-3-3/5-5/6-5-3---------------------------------|
G|--------------------------------------------------|
D|--------------------------------------------------|
A|--------------------------------------------------|
E|--------------------------------------------------|

E|-----------------10-9-7-9-10-10-10-12-12/13-13-13-13-15-15-13-12-|
B|3-3-3-5/7-8-8-7-5------------------------------------------------|
G|-----------------------------------------------------------------|
D|-----------------------------------------------------------------|
A|-----------------------------------------------------------------|
E|-----------------------------------------------------------------|

       G                       C
Vamos todos dar as mãos num lugar celestial
     Em                      D
E os anjos cantarão esta canção
       G                    C
Se houver dois corações se tornarão em um

       Em          D
Basta só louvar a Deus
Em C         D
A   dorai o Rei

( Em  Am  D/F#  G  C  G  D )

   Em     Am     D/F#    G    C G D
Hosana Hosana Hosana ao Re-ei
   Em     Am     D/F#    G    C G D
Hosana Hosana Hosana ao Re-ei
   Em     Am     D/F#    G    C G D
Hosana Hosana Hosana ao Re-ei
   Em     Am     D/F#    G    C G D
Hosana Hosana Hosana ao Re-ei
   Em     Am     D/F#    G    C G D
Hosana Hosana Hosana ao Re-ei
   G
Jesus
Acordes para:
    Composição: Carlos A. MoysésColaboração e revisão:

    0 comentários

      mostrar mais comentários

      Conseguiu tocar?

      5tocaram0ainda não

      Grave um vídeo tocando Adoradores do Rei e mande pra gente!

      00:00 / 00:00
      outros vídeos desta música
      repetirqualidadeautomática
      Outro vídeos desta música
        00:00 / 00:00
        automática
        OK