Cifra Club

Aprenda

Projeto No Deserto

Voz da Verdade

Cifra: Versão 4 (violão e guitarra)
tom: C
[Intro] Am   F   C   G

   Am       F          C             G          Am
Um povo em pleno deserto a nuvem estava por perto
           F        C                G       Am
não tinha fome nem sede pois Deus estava com ele 

( F  C  G  Am ) 
( F  C  G  Am ) 

           F           C           G      Am
Um povo em pleno deserto e não havia doentes
          F         C           G            Am
maná que vinha do céu matava a fome daquela gente

( F  C  G  Am ) 
( F  C  G  Am ) 

           F          C             G           Am
As pernas nunca inchavam as roupas nunca envelheciam
         F        C            G             Am
sapatos não terminavam pelo caminho que seguiam

(F  C  G  Am) 2x

[Refrão]

           C        G                 Am       F
Que Deus é este? (Oh-oh) Que está por perto (Oh-oh)
           C      G        Am      F
Que fez o seu projeto no deserto


esse solo é o do violão
                                                            *      *
E|---------------------------------5-7-7h8-88-5-8-10-10/12--12-12-13-10----5-8----------3h5-5-5-5p3-3--5-5--4-|
B|--------------------------------5------------8------------------------------5h8-------3h5-5-5-5p3-3--5-5--3|
G|----2-4-4h5-5p4-2~~-------------------------------------------------------------5-7-5----------------------|
D|--2---------------5p3p2--3-5-------------------------------------------------------7-----------------------|
A|0---------------------------3/5~~--------------------------------------------------------------------------
E|-----------------------------------------------------------------------------------------------------------|

G|---------------------------------------|
D|-------5--7--7p5-----5--7--7p5--5\-----|
A|--5h7------------5h7-------------------|
E|---------------------------------------|

( Am F G C )
Composição de Carlos A. Moysés
Colaboração e revisão:
32.161 exibições
    • ½ Tom
    • A
    • Bb
    • B
    • C
    • Db
    • D
    • Eb
    • E
    • F
    • F#
    • G
    • Ab
  • Adicionar à lista

    0 comentários

    Ver todos os comentários
    00:00 / 00:00
    Outros vídeos desta música
    Repetir Qualidade Automático
    Outros vídeos desta música
    00:00 / 00:00
    Automático

    Cifra Club Pro

    Aproveite o Cifra Club com benefícios exclusivos e sem anúncios
    Cifra Club Pro
    Aproveite o Cifra Club com benefícios exclusivos e sem anúncios
    OK