Cifra Club

O Céu Se Abre

Walmir Alencar

Cifra: Principal (violão e guitarra)
Tom: B
[Intro] G#m  F#  D#m  E 
        G#m  F#  D#m  E 

E|------------------------------| ---------------------------|
B|------------------------------| ---------------------------|
G|---4----4--6--8--3------------| ----4-3--------------------|
D|---------------------4--6-----| --4-----4-2-1--------------|
A|------------------------------| ---------------------------|
E|------------------------------| ---------------------------|

E|---7----7--9--11--6---------| ----7------------------------|
B|----------------------7--9--| ------9----------------------|
G|----------------------------| -----------------------------|
D|----------------------------| -----------------------------|
A|----------------------------| -----------------------------|
E|----------------------------| -----------------------------|

B                      D#m
Hoje o céu se abre pra derramar
          E               B     A  F#4    F#
Sobre os corações toda a graça do Pai

B                  D#m
Eu também quero me derramar
              E       C#m           A    F#4    F#
De todo o meu coração    nos braços do Pai

B                  E                G#m
Vem,        Espírito Santo,       com teu poder
F#                   E
Tocar meu ser,     fluir em mim          

G#m              E
Hoje eu posso ser um novo homem
      B              F#  (B)
Pelo teu poder renascer           
exibições 530.774

0 comentários

mostrar mais comentários

Conseguiu tocar?

36 tocaram 6 ainda não

Grave um vídeo tocando O Céu Se Abre e mande pra gente!

00:00 / 00:00
outros vídeos desta música
repetir qualidade Automático
Outros vídeos desta música
00:00 / 00:00
Automático
OK