Regulate

Warren G

Composição de: N. Hale
tom: G

Guitar riff throughout:
    Em7                                    Em7   D   Cmaj7
e|--7------7-x-7------------7------7--------7----5----3~~-------------|
B|--7-h8---8-x-8------------7-h8---8--------8----7----5~~-------------|
G|--7------7-x-7------------7------7--------7----7----4~~-------------|
D|--7-h9---9-x-9------------7-h9---9--------9----7----5~~-------------|
A|--7------7-x-7------------7------7--------7----5----3~~-------------|
E|--0-----------------------------------------------------------------|

End of riff:
e|---------------------------------------------|
B|---------------------------------------------|
G|---4---2-2-2---------------------------------|
D|-- 4---2-2-2----2----------------------------|
A|---2---0-0-0----2----------------------------|
E|----------------3p0--------------------------|
Página 1 / 1

Letras e título
Acordes e artista

resetar configurações
OK