Sad Song

We The Kings

tom: Am
[Intro]

E|------3--0------3--0-------3----------------------3--0-------3-----|
B|---1----------1---------1-----3----1--0--1----1-----------1-----3--|
G|-------------------------------------------------------------------|
D|-------------------------------------------------------------------|
A|-------------------------------------------------------------------|
E|-------------------------------------------------------------------|

  C      G          Am                       F
You and I we're like fireworks and symphonies exploding in the sky

C            G
With you i'm alive
             Am                              F
like all the missing pieces of my heart,they finally collide
   F                           G
So stop time right here in the moonlight
              Am                    Bb
cause i don't ever wanna close my eyes


         F          C             G
Without you, i feel broke like i'm half of a whole
         F           C            G
Without you, i've got no hand to hold
         F           C           G       Am    F
Without you, i feel torn,like a sail in a storm
         G                     Am  G   F   G
Without you i'm just a sad song

     C      G                 Am                           F
with you i fall its like im leaving all my past and silhouettes upon the wall
      C                 G
With you im a beautiful mess
              Am                                 F
its like were standing hand in hand with all our fears upon the edge

 F                           G
So stop time right here in the moonlight
              Am                    Bb
cause i don't ever wanna close my eyes


         F          C             G
Without you, i feel broke like i'm half of a whole
         F           C            G
Without you, i've got no hand to hold
         F           C           G       Am    F
Without you, i feel torn,like a sail in a storm
         G
Without you i'm just a sad song

Em                      F                  C             G
  You're the perfect melody, the only harmony  i wanna hear

Em                            F                            C
  You're my favorite part of me, the girl standing next to me ive got nothing
      G
to fear

        F          C             G
Without you, i feel broke like i'm half of a whole
         F           C            G
Without you, i've got no hand to hold
         F           C           E       Am    G   F
Without you, i feel torn,like a sail in a storm
         G
Without you i'm just a sad song

        F          C             G
Without you, i feel broke like i'm half of a whole
         F           C            G
Without you, i've got no hand to hold
         F           C           G       Am    F
Without you, i feel torn,like a sail in a storm
         G                     Am   F   G
Without you i'm just a sad song

[Final] 

E|------3--0------3--0-------3----------------------3--0-------3-----|
B|---1----------1---------1-----3----1--0--1----1-----------1-----3--|
G|-------------------------------------------------------------------|
D|-------------------------------------------------------------------|
A|-------------------------------------------------------------------|
E|-------------------------------------------------------------------|
Página 1 / 1

Letras e título
Acordes e artista

resetar configurações
OK