Cifra Club

Aprenda

Skyway Avenue

We The Kings

Cifra: Versão 3 (violão e guitarra)
tom: A

Not a very hard song, but a very well composed one.

Guitar 1 - Drop D
Guitar 2 - Drop D


Intro: (x2)

Guitar 1:

|-----9---9-----9---9---9-9-9-9--|
|-----7---7-----7---7---6-6-6-6--|
|-0-0---0---0-0---0---0----------|
|--------------------------------|
|--------------------------------|
|--------------------------------|

Then: (x2)

Guitar 1:

|-------------------------|------------------------|
|-11-12-11---9-7-6-7-6-7--|-11-12-11---9-7-6-7-6-4-|
|-------------------------|------------------------|
|-------------------------|------------------------|
|-------------------------|------------------------|
|-------------------------|------------------------|

Guitar 2:

|-------------------------|-------------------------|
|-------------------------|-------------------------|
|-------------------------|-------------------------|
|-9-9-9-9-9-9-9-9-9-9-9-9-|-4-4-4-4-4-4-4-4-6-6-6-6-|
|-9-9-9-9-9-9-9-9-9-9-9-9-|-4-4-4-4-4-4-4-4-6-6-6-6-|
|-9-9-9-9-9-9-9-9-9-9-9-9-|-4-4-4-4-4-4-4-4-6-6-6-6-|

Verse:

Guitar 1:
Plays intro pt.1 x2 for one round of guitar 2.

Guitar 2:

|-----------------------------|-------------------------------|
|-----------------------------|-------------------------------|
|-----------------------------|-------------------------------|  repeat
|-----------------------------|-------------------------------|
|-----9---9-----9---9-9-9-9-9-|-----4---4-----6---6---6-6-6-6-|
|-9-9-9-9-9-9-9-9-9-9-8-8-8-8-|-4-4-4-4-4-6-6-6-6-6-6-6-6-6-6-|


Pre-Chorus:


|-------|-------|-------|-------------------|
|-------|-------|-------|-------------------|
|-------|-------|-------|-------------------|
|-9--4--|-9--6--|-9--4--|-9-9-9-9-9-6-6-6-6-|
|-9--4--|-9--6--|-9--4--|-9-9-9-9-9-6-6-6-6-|
|-9--4--|-8--6--|-9--4--|-8-8-8-8-8-6-6-6-6-|


Chorus:

Guitar 1:

(sorta hard to hear)

|-9-(x16)-|-9-(x16)-|-4-(x16)-|-6-(x16)-|
|-7-------|-6-------|-2-------|-4-------|
|---------|---------|---------|---------|
|---------|---------|---------|---------|
|---------|---------|---------|---------|
|---------|---------|---------|---------|


Guitar 2:

|---------|---------|---------|---------|
|---------|---------|---------|---------|
|---------|---------|---------|---------|
|-9-------|-9-------|-4-------|-6-------|
|-9-(x16)-|-9-(x16)-|-4-(x16)-|-6-(x16)-|
|-9-------|-8-------|-4-------|-6-------|

Then:

|---------------------------------------|
|---------------------------------------|
|---------------------------------------|
|-2-2-2-2--6-6-6-6--4-4-4-4--2-2-2--2-2-|
|-2-2-2-2--6-6-6-6--4-4-4-4--2-2-2--2-2-|
|-2-2-2-2--6-6-6-6--4-4-4-4--2-2-2--2-2-|


Then Back Into the Beginning.




Repeat Verse




Repeat Chorus



Bridge:

You figure out strumming, I'm getting lazy :P

|-----|-----|----|-----|
|-----|-----|----|-----|
|-----|-----|----|-----|x2
|-4---|-9---|-6--|-4---|
|-4---|-9---|-6--|-4---|
|-4---|-9---|-6--|-4---|

Then Go back into the intro.
 

Then you go back into the chorus.  And that should be it!


Any questions just leave a comment.  I'm pretty sure this is right,
and if not.  Its pretty damn close.  Have fun with it!

Composição de Dave Katz / Sam Hollander / Travis Clark
1.478 exibições
    • ½ Tom
    • A
    • Bb
    • B
    • C
    • Db
    • D
    • Eb
    • E
    • F
    • F#
    • G
    • Ab
  • Adicionar à lista

    0 comentários

    Ver todos os comentários

    Conseguiu tocar?

    0 Tocaram 0 Ainda não

    Grave um vídeo tocando Skyway Avenue e nos envie!

    00:00 / 00:00
    Outros vídeos desta música
    Repetir Qualidade Automático
    Outros vídeos desta música
    00:00 / 00:00
    Automático

    Cifra Club Pro

    Aproveite o Cifra Club com benefícios exclusivos e sem anúncios
    Cifra Club Pro
    Aproveite o Cifra Club com benefícios exclusivos e sem anúncios
    OK