Stay Young

We The Kings

tom: Ab
Tabbed by:switchfootfan23
Email:bucksfan230
band website: http://*
Tuning:drop d
picking is easy to figure out through the entire song
intro
e|---------------------------------------------------------------------------|
B|---------------------------------------------------------------------------|
G|--5---------5--3-----------------------------------------------------------|
D|--5--1--6---5--3-----------------------------------------------------------|
A|--3--1--6---3--1-----------------------------------------------------------|
D|-----1--6------------------------------------------------------------------|
rythm guitar verse(palm muted)nothing but picking changes second time through
e|---------------------------------------------------------------------------|
B|---------------------------------------------------------------------------|
G|--5------------------------------------------------------------------------|
D|--5--6--1--6---------------------------------------------------------------|
A|--3--6--1--6---------------------------------------------------------------|
D|-----6--1--6---------------------------------------------------------------|
lead guitar verse(comes in after the rythm plays through once)repeat once
e|---------------------------------------------------------------------------|
B|---------------------------------------------------------------------------|
G|--8--7--5--3--5--7--8------------------------------------------------------|
D|---------------------------------------------------------------------------|
A|---------------------------------------------------------------------------|
D|---------------------------------------------------------------------------|
pre-chorus(let each ring)
e|---------------------------------------------------------------------------|
B|---------------------------------------------------------------------------|
G|---------------------------------------------------------------------------|
D|--6--------8---------------------------------------------------------------|
A|--6--------8---------------------------------------------------------------|
D|--6--------8---------------------------------------------------------------|
chorus
e|---------------------------------------------------------------------------|
B|---------------------------------------------------------------------------|
G|---------------------------------------------------------------------------|
D|--1--8--3--6---------------------------------------------------------------|
A|--1--8--3--6---------------------------------------------------------------|
D|--1--8--3--6---------------------------------------------------------------|
lead guitar 2nd verse(rythm doesn't change)
e|---------------------------------------------------------------------------|
B|---------------------------------------------------------------------------|
G|--8--7--5--3--5--7--8--13--12--10--12--------------------------------------|
D|---------------------------------------------------------------------------|
A|---------------------------------------------------------------------------|
D|---------------------------------------------------------------------------|
repeat chorus bridge rythm(palm mute the last two. the 6 and the 8 on D)
e|---------------------------------------------------------------------------|
B|---------------------------------------------------------------------------|
G|--5--4--3------------------------------------------------------------------|
D|--5--4--3--6------6--8-----------------------------------------------------|
A|--3--2--1--6------6--8-----------------------------------------------------|
D|-----------6------6--8-----------------------------------------------------|
lead guitar bridge
e|---------------------------------------------------------------------------------|
B|---------------------------------------------------------------------------------|
G|---6--5--3--1--------------------------------------------------------------------|
D|---------------------------------------------------------------------------------|
A|---------------------------------------------------------------------------------|
D|---------------------------------------------------------------------------------|
lead guitar solo
e|--6-6-6-3-3-3-----------------6-6-6-3-3-3----------------------------------|
B|--------------6-6-6-6h8-4-4-4-------------6-6-6-6h8--1-1-1-4-4-4-----------|
G|---------------------------------------------------------------------------|
D|---------------------------------------------------------------------------|
A|---------------------------------------------------------------------------|
D|---------------------------------------------------------------------------|

e|---------------------------------------------------------------------------|
B|--6-6-6-8-8-8-11-11-11-11-11-11-11-11-13-13-13-13-13-13-13-13-11b----------|
G|---------------------------------------------------------------------------|
D|---------------------------------------------------------------------------|
A|---------------------------------------------------------------------------|
D|---------------------------------------------------------------------------|
repeat chorus and your done

| /  slide up
| \  slide down
| h  hammer-on
| p  pull-off
| ~  vibrato
| +  harmonic
| x  Mute note
===============================================================================
Página 1 / 1

Letras e título
Acordes e artista

resetar configurações
OK