Quiet Little Voices

We Were Promised Jetpacks

Composição de: We Were Promised Jetpacks
tom: B Afinação: E A D G B E
[Intro + versos]
E|---------------------------------------------------------|
B|---------------------------------------------------------|
G|----4-----4-----4----4-----4-----4-----4----4------------|
D|---------------------------------------------------------|
A|---------------------------------------------------------|
E|-4-----4-----4----4-----4-----4-----4----4---------------|

E|---------------------------------------------------------|
B|---------------------------------------------------------|
G|----6-----6-----6-----6-----6-----6-----6-----6----------|
D|---------------------------------------------------------|
A|---------------------------------------------------------|
E|-0-----0-----0-----0-----0-----0-----0-----0-------------|

E|---------------------------------------------------------|
B|---------------------------------------------------------|
G|----8-----8-----8-----8-----8-----8-----8-----8----------|
D|---------------------------------------------------------|
A|---------------------------------------------------------|
E|-7-----7-----7-----7-----7-----7-----7-----7-------------|

E|---------------------------------------------------------|
B|---------------------------------------------------------|
G|----8-----8-----8-----8-----8-----8-----8-----8----------|
D|---------------------------------------------------------|
A|---------------------------------------------------------|
E|-7-----7-----7-----7-----7-----7-----7-----7-------------|

[Refrão]
E|-----------------------------------------------------------------|
B|-----------------------------------------------------------------|
G|-4-4-4-4-4-4-4-4-4-4-4-4-4-4-4-4-6-6-6-6-6-6-6-6-6-6-6-6-6-6-6-6-|
D|-0-0-0-0-0-0-0-0-0-0-0-0-0-0-0-0---------------------------------|
A|---------------------------------7-7-7-7-7-7-7-7-7-7-7-7-7-7-7-7-|
E|-4-4-4-4-4-4-4-4-4-4-4-4-4-4-4-4-0-0-0-0-0-0-0-0-0-0-0-0-0-0-0-0-|

E|-----------------------------------------------------------------|
B|-----------------------------------------------------------------|
G|-8-8-8-8-8-8-8-8-8-8-8-8-8-8-8-8-8-8-8-8-8-8-8-8-8-8-8-8-8-8-8-8-|
D|-9-9-9-9-9-9-9-9-9-9-9-9-9-9-9-9-9-9-9-9-9-9-9-9-9-9-9-9-9-9-9-9-|
A|-----------------------------------------------------------------|
E|-7-7-7-7-7-7-7-7-7-7-7-7-7-7-7-7-7-7-7-7-7-7-7-7-7-7-7-7-7-7-7-7-|(x2)

[Ponte]
E|-----------------------------------------------------------------|
B|-----------------------------------------------------------------|
G|-----8-------8-------8-------8-------8-------8-------8-------8---|
D|-----9-------9-------9-------9-------9-------9-------9-------9---|
A|-------------------------------------7-------7-------7-------7---|
E|-7-7-7-7-7-7-7-7-7-7-7-7-7-7-7-7-0-0-0-0-0-0-0-0-0-0-0-0-0-0-0-0-|

E|-----------------------------------------------------------------|
B|-----------------------------------------------------------------|
G|-----8------8--------8-------8-------8-------8---8---8---8-8-8-8-|
D|-----9------9--------9-------9-------9-------9---9---9---9-9-9-9-|
A|-------------------------------------------------9---9---9-9-9-9-|
E|-7-7-7-7-7-7-7-7-7-7-7-7-7-7-7-7-7-7-7-7-7-7-7-7-7-7-7-7-7-7-7-7-|(x2)
Página 1 / 1

Letras e título
Acordes e artista

resetar configurações
OK