Roll Up Your Sleeves

We Were Promised Jetpacks

Composição de: We Were Promised Jetpacks
tom: C Afinação: E A D G B E
[Intro]
             C                 A               
E|---------------------------------------------------------------------------|
B|-----------3-----------------2---------------------------------------------|
G|-----------x-x8--------------2-x5------------------------------------------| x2
D|-----------4-----------------2---------------------------------------------|
A|-----------5---------------------------------------------------------------|
E|---------------------------------------------------------------------------|

            Bm                 A
E|-----------2---------------------------------------------------------------|
B|-----------3-----------------2---------------------------------------------|
G|-----------4-x8--------------2-x5------------------------------------------| x2
D|-----------5-----------------2---------------------------------------------|
A|-----------2---------------------------------------------------------------|
E|---------------------------------------------------------------------------|


[Chorus]

             C                 A               
E|---------------------------------------------------------------------------|
B|-----------3-----------------2---------------------------------------------|
G|-----------x-x8--------------2-x5------------------------------------------| x2
D|-----------4-----------------2---------------------------------------------|
A|-----------5---------------------------------------------------------------|
E|---------------------------------------------------------------------------|

            Bm                 A
E|-----------2---------------------------------------------------------------|
B|-----------3-----------------2---------------------------------------------|
G|-----------4-x8--------------2-x5------------------------------------------| x2
D|-----------5-----------------2---------------------------------------------|
A|-----------2---------------------------------------------------------------|
E|---------------------------------------------------------------------------|



[Verse 2]

             C                 A               
E|---------------------------------------------------------------------------|
B|-----------3-----------------2---------------------------------------------|
G|-----------x-x8--------------2-x5------------------------------------------| x2
D|-----------4-----------------2---------------------------------------------|
A|-----------5---------------------------------------------------------------|
E|---------------------------------------------------------------------------|

            Bm                 A
E|-----------2---------------------------------------------------------------|
B|-----------3-----------------2---------------------------------------------|
G|-----------4-x8--------------2-x5------------------------------------------| x2
D|-----------5-----------------2---------------------------------------------|
A|-----------2---------------------------------------------------------------|
E|---------------------------------------------------------------------------|

[Chorus]
             C                 A               
E|---------------------------------------------------------------------------|
B|-----------3-----------------2---------------------------------------------|
G|-----------x-x8--------------2-x5------------------------------------------| x2
D|-----------4-----------------2---------------------------------------------|
A|-----------5---------------------------------------------------------------|
E|---------------------------------------------------------------------------|

            Bm                 A
E|-----------2---------------------------------------------------------------|
B|-----------3-----------------2---------------------------------------------|
G|-----------4-x8--------------2-x5------------------------------------------| x2
D|-----------5-----------------2---------------------------------------------|
A|-----------2---------------------------------------------------------------|
E|---------------------------------------------------------------------------|
Página 1 / 1

Letras e título
Acordes e artista

resetar configurações
OK