Despedida (part. Pacheco)

Wesley Safadão

Composição de: Cabeção do Forró / Conde Macedo / JOTA REIS / Neto Barros / RANIERE MAZILLE / Zé Hilton
tom: A
[Intro] A9  E  Bm  D

E|-----------------------------------------------------|
B|-----2---2h3-2~--2-3-5-5/7-5~---5-3-2---2h3~---------|
G|-2-4---2------------------------x-----4--------------|
D|--------------------------------x--------------------|
A|-----------------------------------------------------|
E|-----------------------------------------------------|

E|--------------5--7--12-------------------------------|
B|-5-3-2-3-3/7------------12b14~-----------------------|
G|-x---------------------------------------------------|
D|-x---------------------------------------------------|
A|-----------------------------------------------------|
E|-----------------------------------------------------|

[Primeira Parte]

              A9
Eu entro no quarto 
                             E
E vejo sua mala fechada no chão
                              F#m7
E no guarda roupa um vestido de solidão
        D9
Doeu demais meu coração
          A9
E na geladeira um bilhete dizendo 
               E
Que só vai voltar
                                        F#m7
Pra buscar as coisas que não deu pra levar
                            D9
E se for sair, deixa a chave no mesmo lugar

[Refrão]

           A9
E na despedida

Como é que eu vou beijar o seu rosto
                 E
Se eu já beijei sua boca?

Como é que eu vou te abraçar vestida
                 F#m7
Se eu já te abracei sem roupa?
                         
Como é que eu vou abrir 
                           D9
Aquela porta e te deixar sair?
                       A9
Como é que eu vou dividir
                         
Um corpo que era inteiro
            E
Exclusivo, só pra mim?

           A9
E na despedida

Como é que eu vou beijar o seu rosto
                 E
Se eu já beijei sua boca?

Como é que eu vou te abraçar vestida
                 F#m7
Se eu já te abracei sem roupa?
                         
Como é que eu vou abrir 
                           D9
Aquela porta e te deixar sair?
                       A9
Como é que eu vou dividir
                         
Um corpo que era inteiro
            E
Exclusivo, só pra mim?

Ainda não tô preparado 

Pra me despedir

[Solo] F#m7  A  Bm  D

E|-----------------------------------------------------|
B|---10p9---10p9---10p9---10p9---10p9---10/12~---------|
G|-9------9------9------9------9------9----------------|
D|-----------------------------------------------------|
A|-----------------------------------------------------|
E|-----------------------------------------------------|

E|-12-10-9-------------12-10-9-------------------------|
B|---------10/12-10~-----------12-10---10p9------------|
G|------------------------------------------11~p9------|
D|-----------------------------------------------------|
A|-----------------------------------------------------|
E|-----------------------------------------------------|

E|-----------------------------------------------------|
B|-----------------------------------------------------|
G|------9----------------------------------------------|
D|-9h11----11\9--7~------------------------------------|
A|-----------------------------------------------------|
E|-----------------------------------------------------|

[Primeira Parte]

              A9
Eu entro no quarto 
                             E
E vejo sua mala fechada no chão
                              F#m7
E no guarda roupa um vestido de solidão
        D9
Doeu demais meu coração
          A9
E na geladeira um bilhete dizendo 
               E
Que só vai voltar
                                        F#m7
Pra buscar as coisas que não deu pra levar
                            D9
E se for sair, deixa a chave no mesmo lugar

[Refrão]

           A9
E na despedida

Como é que eu vou beijar o seu rosto
                 E
Se eu já beijei sua boca?

Como é que eu vou te abraçar vestida
                 F#m7
Se eu já te agarrei sem roupa?
                         
Como é que eu vou abrir 
                           D9
Aquela porta e te deixar sair?
                       A9
Como é que eu vou dividir
                         
Um corpo que era inteiro
            E
Exclusivo, só pra mim?

           A9
E na despedida

Como é que eu vou beijar o seu rosto
                 E
Se eu já beijei sua boca?

Como é que eu vou te abraçar vestida
                 F#m7
Se eu já te agarrei sem roupa?
                         
Como é que eu vou abrir 
                           D9
Aquela porta e te deixar sair?
                       A9
Como é que eu vou dividir
                         
Um corpo que era inteiro
            E
Exclusivo, só pra mim?

Ainda não tô preparado 

Pra me despedir

F#m7  D9  A9
  Ôôô ôôô ôôô
 E                                  F#m7
Ainda não tô preparado pra me despedir
F#m7  D9  A9
  Ôôô ôôô ôôô
 E                                  F#m7
Ainda não tô preparado pra me despedir
Página 1 / 1

Letras e título
Acordes e artista

resetar configurações
OK