Cifra Club

Aprenda

Juras de Amor

Wesley Safadão

Cifra: Versão 2 (violão e guitarra)
Tom: D
Intro: D  Bm  A  G  D  A  Bm  A  G  D

Solo:
E|-----------------------------------------------|
B|-----------------------------------------------|
G|-----------7-6-7--7-7-7-7-6-6-6-4-2--2-4-2-4-2-|
D|--7-7-7--7-------------------------------------|
A|-----------------------------------------------|
E|-----------------------------------------------|

E|-------------|
B|-------------|
G|2p4-2--------|
D|-------------|
A|------7-7p9--|
E|-------------|

E|------------------------------------------------|
B|------------------------------------------------|
G|-----------7-6-6p9-7--7-7-7-7-6-6-6-4-2---------|
D|--7-7-7--7------------------------------4-5-4-5-|
A|------------------------------------------------|
E|------------------------------------------------|

E|------------|
B|------------|
G|------------|
D|7-7p9-7-----|
A|--------7-9-|
E|------------|

             Bm                 A
Não sou de ficar mais de uma semana sem amor
G                           D
Sem um beijo, sem um corpo, tá difícil
             Bm           A
Deixa eu te falar, eu vou fazer jejum de amor
G
Pra provar o que eu sinto

D              A             Bm
Quer saber? Eu to arrependido
                             F#m
Porque não falei no seu ouvido
                     G
As frases de amor que não falei
            D
Em nosso cobertor

      A        Bm                   F#m
Sentimento proibido, até parece impossível
                    G                       A
Quer saber? Eu necessito ter de volta seu calor

            Bm
Sua boca é minha
           G
Domina a minha
               D                            A
E o que é que as duas estão fazendo tão sozinhas? 
(2x)

                        Bm A G D A Bm A G D
Ai, ai, ai, boca minha
Composição de Evan Marques
Colaboração e revisão:
  • Gabriel
1.352 exibições
    • ½ Tom
    • A
    • Bb
    • B
    • C
    • Db
    • D
    • Eb
    • E
    • F
    • F#
    • G
    • Ab
  • Adicionar à lista

    0 comentários

    Mostrar mais comentários

    Conseguiu tocar?

    0 Tocaram 0 Ainda não

    Grave um vídeo tocando Juras de Amor e mande pra gente!

    00:00 / 00:00
    outros vídeos desta música
    repetir qualidade Automático
    Outros vídeos desta música
    00:00 / 00:00
    Automático

    Cifra Club Pro

    Aproveite o Cifra Club com benefícios exclusivos e sem anúncios
    7 dias grátis
    Cifra Club Pro
    Aproveite o Cifra Club com benefícios exclusivos e sem anúncios
    7 dias grátis
    OK