Cifra Club

Novinha Vai No Chão

Wesley Safadão

Cifra: Principal
exibições 84.449
Tom: C
Primeira Parte:

             Dm
Se eu quero poesia
                 Am              E
Eu escuto roupa nova, escuto Djavan
                    Am
Os cara que eu sou fã
            Dm                      Am                 E
Mas eu sou novo e tô solteiro na balada tô nem ai pra nada
     E                  E
Eu quero é curtir, eu quero é beijar
     E                           Am
No show do safadão a galera vai dançar

Refrão 2x:

                 E
Novinha vai no chão
                 Am
Novinha vai no chão
                 E
Novinha vai no chão
                    Am
Chão, chão, chão, chão

Solo 2x:

E|---------------------------------------------------------------------|
B|---------------------------------------------------------------------| 
G|----------------16--------------17--------------16-16-16--16-14-16-14| 
D|-14-14-14-14-14----14--14-14-14----14--14-14-14----------------------| 
A|---------------------------------------------------------------------|
E|---------------------------------------------------------------------|
 

Segunda Parte:

     Dm                             Am
A galera tá pedindo pra tocar no paredão
      Dm                                   Am
As novinhas tão subindo e descendo até o chão

Refrão 2x:

                 E
Novinha vai no chão
                 Am
Novinha vai no chão
                 E
Novinha vai no chão
                    Am
Chão, chão, chão, chão

Primeira Parte:

             Dm
Se eu quero poesia
                 Am              E
Eu escuto roupa nova, escuto Djavan
                    Am
Os cara que eu sou fã
            Dm                      Am                 E
Mas eu sou novo e tô solteiro na balada tô nem ai pra nada
     E                  E
Eu quero é curtir, eu quero é beijar
     E                           Am
No show do safadão a galera vai dançar

Refrão 2x:

                 E
Novinha vai no chão
                 Am
Novinha vai no chão
                 E
Novinha vai no chão
                    Am
Chão, chão, chão, chão

Solo 2x:

E|---------------------------------------------------------------------|
B|---------------------------------------------------------------------| 
G|----------------16--------------17--------------16-16-16--16-14-16-14| 
D|-14-14-14-14-14----14--14-14-14----14--14-14-14----------------------| 
A|---------------------------------------------------------------------|
E|---------------------------------------------------------------------|
 

Segunda Parte:

     Dm                             Am
A galera tá pedindo pra tocar no paredão
      Dm                                   Am
As novinhas tão subindo e descendo até o chão

Refrão 2x:

                 E
Novinha vai no chão
                 Am
Novinha vai no chão
                 E
Novinha vai no chão
                    Am
Chão, chão, chão, chão

Solo 2x:

E|---------------------------------------------------------------------|
B|---------------------------------------------------------------------| 
G|----------------16--------------17--------------16-16-16--16-14-16-14| 
D|-14-14-14-14-14----14--14-14-14----14--14-14-14----------------------| 
A|---------------------------------------------------------------------|
E|---------------------------------------------------------------------|
Acordes para:
    Colaboração e revisão:

    0 comentários

      mostrar mais comentários

      Conseguiu tocar?

      4tocaram0ainda não

      Grave um vídeo tocando Novinha Vai No Chão e mande pra gente!

      00:00 / 00:00
      outros vídeos desta música
      repetirqualidadeautomática
      Outro vídeos desta música
        00:00 / 00:00
        automática
        OK