Cifra Club

Sou Mais Forte

Wesley Safadão

Cifra: Principal
exibições 16.063
Tom: A
Introdução: 

Parte 1

E|--------------------------------------------
B|--3/5-3-2--3/5-3-2--3/5-3-2--3/5-3-2--------
G|--------------------------------------------
D|--------------------------------------------
A|--------------------------------------------
E|--------------------------------------------


Parte 2


E|----------------------------------10/12-----
B|--10h12----12/14-12---10/12-----------------
G|--------9-------------------7---------------
D|--------------------------------------------
A|--------------------------------------------
E|--------------------------------------------


A9
Deve tá me olhando no retrovisor
  D9
Feliz da vida porque não vai me ver mais
   F#m                 E
Mas virando a esquina, te garanto
                       D9
Não vai ter tanta certeza

    A9
E quando a rotina te fizer enxergar
    D9
Que era bem melhor comigo e quer voltar
     F#m                   E
Mas não, cê não pensou em mim

Refrão

A                                D9
Você vai ouvir a nossa música tocar no rádio
                                  Bm
Vai querer chorar, mas ele tá do lado
  D9                          E
E ai vai dar valor no que cê tinha

                   A
Eu vou lembrar da gente
                                  D9
Mas a diferença é que eu sou mais forte
                                   B9
E quem olha pra mim, agora talvez note
          D9                        E
Que eu sempre dei valor no que eu tinha
D9           E     A9     E
Quando você era minha


A9
Iôiô iô, iô iô iô
D9                    F#m   E
Iôiô iô, iô iô iô
Acordes para:
    Colaboração e revisão:

    0 comentários

      mostrar mais comentários

      Conseguiu tocar?

      2tocaram0ainda não

      Grave um vídeo tocando Sou Mais Forte e mande pra gente!

      00:00 / 00:00
      outros vídeos desta música
      repetirqualidadeautomática
      Outro vídeos desta música
        00:00 / 00:00
        automática
        OK