Cifra Club

Você Não Me Esqueceu (part. Jorge)

Wesley Safadão

Cifra: Principal
exibições 89.918
Tom: G
Intro 2x: Em C D

E|---------------------------------------------|
B|---------------------------------------------|
G|----5h7-5---4p2------------------------------|
D|--5-------------5---5h7-5/7~-----------------|
A|---------------------------------------------|
E|---------------------------------------------|

E|---------------------------------------------|
B|---------------------------------------------|
G|----5h7-5---4p2------------------------------|
D|--5-------------5-4--------------------------|
A|---------------------5/7---------------------|
E|---------------------------------------------|

Primeira Parte:

          Em
Hoje eu acordei
              
Peguei meu telefone
                         C9
E vi suas mensagens apaixonadas
                                   D
Ontem também eu mandei várias pra você
                                    Em
Infelizmente as minhas não foram enviadas

Segunda Parte:

                  C9
Tantas frase tão lindas
           D                              Em
Por coincidência as suas foram iguais as minhas
                                 C9
Em uma delas se sentia tão sozinha
              D                       Em
Que era impossível em um minuto me esquecer

Pré-Refrão:

            Am7
Quando um grande amor se vai
     D
Os dois sofrem iguais
          G                       Em
Mas a distância nunca separa quem ama
           Am7
Mesmo que venha a se envolver
            D
Com outras pessoas pra esquecer
       Em
A lembrança faz a gente ter saudade

Refrão:

                C
Você não me esqueceu
           D
Nem muito menos eu
           Em
Nem muito menos eu
                C
Você não me esqueceu
           D
Nem muito menos eu
           Em
Nem muito menos eu

Solo 2x: C  D  Em

E|---------------------------------------------|
B|---------------------------------------------|
G|----5h7-5---4p2------------------------------|
D|--5-------------5---5h7-5/7~-----------------|
A|---------------------------------------------|
E|---------------------------------------------|

E|---------------------------------------------|
B|---------------------------------------------|
G|----5h7-5---4p2------------------------------|
D|--5-------------5-4--------------------------|
A|---------------------5/7---------------------|
E|---------------------------------------------|

Pré-Refrão:

            Am7
Quando um grande amor se vai
     D
Os dois sofrem iguais
          G                       Em
Mas a distância nunca separa quem ama
           Am7
Mesmo que venha a se envolver
            D
Com outras pessoas pra esquecer
       Em
A lembrança faz a gente ter saudade

Refrão 2x:

                C
Você não me esqueceu
           D
Nem muito menos eu
           Em
Nem muito menos eu
                C
Você não me esqueceu
           D
Nem muito menos eu
           Em
Nem muito menos eu

Solo 2x: C  D  Em

E|---------------------------------------------|
B|---------------------------------------------|
G|----5h7-5---4p2------------------------------|
D|--5-------------5---5h7-5/7~-----------------|
A|---------------------------------------------|
E|---------------------------------------------|

E|---------------------------------------------|
B|---------------------------------------------|
G|----5h7-5---4p2------------------------------|
D|--5-------------5-4--------------------------|
A|---------------------5/7---------------------|
E|---------------------------------------------|
Acordes para:
    Colaboração e revisão:

    0 comentários

      mostrar mais comentários

      Conseguiu tocar?

      10tocaram1ainda não

      Grave um vídeo tocando Você Não Me Esqueceu (part. Jorge) e mande pra gente!

      00:00 / 00:00
      outros vídeos desta música
      repetirqualidadeautomática
      Outro vídeos desta música
        00:00 / 00:00
        automática
        OK