Cifra Club

Piscininha Amor

Whadi Gama

Cifra: Principal (violão e guitarra)
Tom: Eb
[Intro] D#m  B  C#
        D#m  B  A#
  
[Primeira Parte]

D#m                                 B  
 Tava de boa e falei amor vamos passear
        A#
Ela correndo veio me abraçar
D#m                                   B
 Falou amor mas onde que nós vamos parar
             C#
Calma amor, tenho um bom lugar pra ficar

[Pré-Refrão]

D#m
 E aí levei
        B           A#
Isso aqui tá bom demais

D#m
 E aí levei
       B             C#
Que delícia de Mar, hein

[Refrão]

      D#m
Piscininha amor

Piscininha amor
B                    A#
Ótimo pra gente namorar hein

      D#m
Piscininha amor

Piscininha amor
 B                   C#
Bom pra gente se beijar

[Ponte]

B
Ah que momento
        D#m
Que nunca vou esquecer
          B
Mais uma parte dessa história
              C#
Entre eu e você

[Pré-Refrão]

D#m
 E aí levei
        B           A#
Isso aqui tá bom demais

D#m
 E aí levei
       B             C#
Que delícia de Mar, hein

[Refrão]

      D#m
Piscininha amor

Piscininha amor
B                    A#
Ótimo pra gente namorar hein

      D#m
Piscininha amor

Piscininha amor
 B                   C#
Bom pra gente se beijar

[Solo] D#m  B  A#
       D#m  B  C#

E|-11-11-11-----------11-11-11------------------------|
B|----------11--11--------------11--11----12-11-12-11-|
G|----------------------------------------------------|
D|----------------------------------------------------|
A|----------------------------------------------------|
E|----------------------------------------------------|

E|----------------------------------------------------|
B|------------9-10-10~--------------------------------|
G|-11------11-----------------------------------------|
D|----------------------------------------------------|
A|----------------------------------------------------|
E|----------------------------------------------------|

E|-11-11-11-----------11-11-11------------------------|
B|----------11--11--------------11--11---9----9----9--|
G|-----------------------------------------11---11----|
D|----------------------------------------------------|
A|----------------------------------------------------|
E|----------------------------------------------------|

E|----------------------------------------------------|
B|----9----9/11-9~------------------------------------|
G|-11---11--------------------------------------------|
D|----------------------------------------------------|
A|----------------------------------------------------|
E|----------------------------------------------------|

[Primeira Parte]

D#m                                 B  
 Tava de boa e falei amor vamos passear
        A#
Ela correndo veio me abraçar
D#m                                   B
 Falou amor mas onde que nós vamos parar
             C#
Calma amor, tenho um bom lugar pra ficar

[Pré-Refrão]

D#m
 E aí levei
        B           A#
Isso aqui tá bom demais

D#m
 E aí levei
       B             C#
Que delícia de Mar, hein

[Refrão]

      D#m
Piscininha amor

Piscininha amor
B                    A#
Ótimo pra gente namorar hein

      D#m
Piscininha amor

Piscininha amor
 B                   C#
Bom pra gente se beijar

[Ponte]

B
Ah que momento
        D#m
Que nunca vou esquecer
          B
Mais uma parte dessa história
              C#
Entre eu e você

[Refrão]

      D#m
Piscininha amor

Piscininha amor
B                    A#
Ótimo pra gente namorar hein

      D#m
Piscininha amor

Piscininha amor
 B                   C#
Bom pra gente se beijar

      D#m
Piscininha amor

Piscininha amor
B                    A#
Ótimo pra gente namorar hein

      D#m
Piscininha amor

Piscininha amor
 B                   C#
Bom pra gente se beijar
exibições 27.294
Acordes para:
    Composição: Whadi Gama Colaboração e revisão:
    • Getúlio Vasconcelos

    0 comentários

    mostrar mais comentários

    Conseguiu tocar?

    4 tocaram 0 ainda não

    Grave um vídeo tocando Piscininha Amor e mande pra gente!

    00:00 / 00:00
    outros vídeos desta música
    repetir qualidade Automático
    Outros vídeos desta música
    00:00 / 00:00
    Automático
    Capítulos
    • Abertura
    • Apresentação / Equipamentos
    • Dicas da Música
    • Acordes da Música
    • Ritmo da Música
    • Tocando Trecho da Música
    • Dicas Ritmo
    • Dicas Segunda Parte
    • Encerramento
    OK