Play That Funky Music

Wild Cherry

Composição: Rob Parissi
Tom: C
^ hammer on

INTRO and VERSES:
e----------------------------
B----------------------------
G----------------------------
D-------2-0-2-------0^2------
A--------------0^2-----------
E--0-0-----------------------

CHORUS:
e----------------------------
B----------------------------
G----------------------------
D-------5-3-5-------3^5------
A--------------3^5-----------
E--3-3-----------------------

I hope this is about right! :)
Página 1 / 1

Letras e título
Acordes e artista

resetar configurações
OK