Cifra Club

Aprenda

Play That Funky Music

Wild Cherry

Cifra: Versão 3 (violão e guitarra)
Tom: C
Hey this is SoccerGuy9 from Williamsburg, VA.
     I noticed that the only part the other versions had was the intro so I decided
to tab the whole song. It's my first tab and I hope it's right. Enjoy! 

     (E A D G B e)
  - Four Beats Per Measure

   /------------\  
  /  Tab Legend  \
 /  ------------  \
 \  ^ Hammer On   /
  \ ~ Let Ring   /
   \------------/

  e|---------------------|
  B|---------------------|
  G|---------------------|     Repeat as needed.
  D|---------------------|
  A|------2-0-2-0^2------|
  E|--0-0-----------0^2--|

  e|---------------------|
  B|---------------------|
  G|---------------------|     Repeat as needed.
  D|---------------------|
  A|------5-3-5-3^5------|
  E|--3-3-----------3^5--|

  e|---------------------|---------------------|
  B|---------------------|---------------------|
  G|---------------------|---------------------|
  D|---3^5---5-3^5---5---|---3^5-5-5-3^5---5---|
  A|---------------------|---------------------|
  E|---------------------|---------------------|

  e|---------------------|---------------------|
  B|---------------------|---------------------|
  G|---------------------|----------------2--4-|
  D|---3^5---5-3^5---5---|---3^5-5-5-3^5-------|
  A|---------------------|---------------------|
  E|---------------------|---------------------|

  e|---------------------|---------------------|
  B|---0-0-0---0---------|---------------------|
  G|---------2-----2-0---|---------------------|
  D|---------------------|---3~~~~~~~~~~~~~~---|
  A|---------------------|---------------------|
  E|---------------------|---------------------|
  
  e|---------------------|---------------------|
  B|---0-0-0---0---------|---------------------|
  G|---------2----2-0----|---------------------|
  D|------------------3~~|~~~~~~~~~~~~~~~~~~---|
  A|---------------------|---------------------|
  E|---------------------|---------------------|

  e|---------------------|---------------------|
  B|---0-0-0---0---------|---------------------|
  G|---------2-----2-0---|---------------------|
  D|---------------------|---3~~~~~~~~~~~~~~---|
  A|---------------------|---------------------|
  E|---------------------|---------------------|

  e|---------------------|---------------------|
  B|---------------------|---------------------|
  G|--2---0---0----------|---------------------|
  D|--------2-----2-0-2--|----0-2-0------------|
  A|---------------------|--3-------3-0---0~~--|
  E|---------------------|--------------3------|
Composição de Rob Parissi
1.901 exibições
    • ½ Tom
    • A
    • Bb
    • B
    • C
    • Db
    • D
    • Eb
    • E
    • F
    • F#
    • G
    • Ab
  • Adicionar à lista

    0 comentários

    Mostrar mais comentários

    Conseguiu tocar?

    0 Tocaram 0 Ainda não

    Grave um vídeo tocando Play That Funky Music e mande pra gente!

    00:00 / 00:00
    outros vídeos desta música
    repetir qualidade Automático
    Outros vídeos desta música
    00:00 / 00:00
    Automático

    Cifra Club Pro

    Aproveite o Cifra Club com benefícios exclusivos e sem anúncios
    7 dias grátis
    Cifra Club Pro
    Aproveite o Cifra Club com benefícios exclusivos e sem anúncios
    7 dias grátis
    OK