Cifra Club

Aprenda

Play That Funky Music

Wild Cherry

Tab de baixo: Principal
Introdução

Parte 1 ( tocar 4x )

G|--------------------------------------------|
D|--------------------------------------------|
A|---5-7-------5h7----------------------------|
E|-0-----0-5h7--------------------------------|
B|--------------------------------------------|

Primeira parte

Yeah,once I was a Boogie singer...

Parte 1 ( tocar 16x )

G|--------------------------------------------|
D|--------------------------------------------|
A|---5-7-------5h7----------------------------|
E|-0-----0-5h7--------------------------------|
B|--------------------------------------------|

Parte 2

G|--------------------------------------------|
D|--------------------------------------------|
A|---5-7-------5h7----------------------------|
E|-0-----0-5h7------0-------------------------|
B|--------------------------------------------|

Refrão 

Play that funky music white boy...

Parte 1

G|--------------------------------------------|
D|----------5-5-------3h5---------------------|
A|--------------x-3h5-------------------------|
E|-0-1-2-3------------------------------------|
B|--------------------------------------------|

G|--------------------------------------------|
D|----5-5--------3h5----5-5--------3h5--------|
A|---------x-3h5-------------x-3h5------------|
E|-3-----------------3------------------------|
B|--------------------------------------------|

G|--------------------------------------------|
D|---5-5-------3h5----5-5--------8-8----------|
A|-------x-3h5--------------------------------|
E|-3---------------3------3-5-6---------------|
B|--------------------------------------------|

Parte 2

G|-----7---7----------------------------------|
D|-10----9---9-7-9--7-9-7-5-------------------|
A|--------------------------7-5---------------|
E|--------------------------------------------|
B|--------------------------------------------|

Introdução 2

Parte 1 ( tocar 4x )

G|--------------------------------------------|
D|--------------------------------------------|
A|---5-7-------5h7----------------------------|
E|-0-----0-5h7--------------------------------|
B|--------------------------------------------|

Segunda parte 

I tried to understand this...

Parte 1 ( tocar 16x )

G|--------------------------------------------|
D|--------------------------------------------|
A|---5-7-------5h7----------------------------|
E|-0-----0-5h7--------------------------------|
B|--------------------------------------------|

Parte 2

G|--------------------------------------------|
D|--------------------------------------------|
A|---5-7-------5h7----------------------------|
E|-0-----0-5h7------0-------------------------|
B|--------------------------------------------|

Refrão 2

Play that funky music white boy...

Parte 1

G|--------------------------------------------|
D|----------5-5-------3h5---------------------|
A|--------------x-3h5-------------------------|
E|-0-1-2-3------------------------------------|
B|--------------------------------------------|

G|--------------------------------------------|
D|----5-5--------3h5----5-5--------3h5--------|
A|---------x-3h5-------------x-3h5------------|
E|-3-----------------3------------------------|
B|--------------------------------------------|

G|--------------------------------------------|
D|---5-5-------3h5----5-5--------8-8----------|
A|-------x-3h5--------------------------------|
E|-3---------------3------3-5-6---------------|
B|--------------------------------------------|

Parte 2

G|-----7---7----------------------------------|
D|-10----9---9-7-9--7-9-7-5-------------------|
A|--------------------------7-5---------------|
E|--------------------------------------------|
B|--------------------------------------------|

Introdução 3

Parte 1 ( tocar 4x )

G|--------------------------------------------|
D|--------------------------------------------|
A|---5-7-------5h7----------------------------|
E|-0-----0-5h7--------------------------------|
B|--------------------------------------------|

Solo guitarra

Parte 1 ( tocar 8x )

G|--------------------------------------------|
D|--------------------------------------------|
A|---5-7-------5h7----------------------------|
E|-0-----0-5h7--------------------------------|
B|--------------------------------------------|

Terceira parte

Hey wait a minute,now first it wasn't easy...

Parte 1 ( tocar 16x )

G|--------------------------------------------|
D|--------------------------------------------|
A|---5-7-------5h7----------------------------|
E|-0-----0-5h7--------------------------------|
B|--------------------------------------------|

Parte 2

G|--------------------------------------------|
D|--------------------------------------------|
A|---5-7-------5h7----------------------------|
E|-0-----0-5h7------0-------------------------|
B|--------------------------------------------|

Refrão 3

Play that funky music white boy...

Parte 1

G|--------------------------------------------|
D|----------5-5-------3h5---------------------|
A|--------------x-3h5-------------------------|
E|-0-1-2-3------------------------------------|
B|--------------------------------------------|

G|--------------------------------------------|
D|----5-5--------3h5----5-5--------3h5--------|
A|---------x-3h5-------------x-3h5------------|
E|-3-----------------3------------------------|
B|--------------------------------------------|

G|--------------------------------------------|
D|---5-5-------3h5----5-5--------8-8----------|
A|-------x-3h5--------------------------------|
E|-3---------------3------3-5-6---------------|
B|--------------------------------------------|

Parte 2

G|-----7---7----------------------------------|
D|-10----9---9-7-9--7-9-7-5-------------------|
A|--------------------------7-5---------------|
E|--------------------------------------------|
B|--------------------------------------------|

Introdução 4

Parte 1 ( tocar 3x )

G|--------------------------------------------|
D|--------------------------------------------|
A|---5-7-------5h7----------------------------|
E|-0-----0-5h7--------------------------------|
B|--------------------------------------------|

Parte 2

They shouted play that funky music...

G|--------------------------------------------|
D|--------------------------------------------|
A|---5-7--------------------------------------|
E|-0-----0-1-2-3------------------------------|
B|--------------------------------------------|

Refrão 4

Parte 1

Play that funky music white boy...

G|--------------------------------------------|
D|----5----6----------------------------------|
A|--------------------------------------------|
E|-3----4-------------------------------------|
B|--------------------------------------------|

Parte 2 ( tocar 12x )

G|--------------------------------------------|
D|----7-7-------5h7---------------------------|
A|--------x-5h7-------------------------------|
E|-5------------------------------------------|
B|--------------------------------------------|

Parte 3 ( Final )

G|--------------------------------------------|
D|----7-7-------5h7---------------------------|
A|--------x-5h7-------------------------------|
E|-5-----------------5\-----------------------|
B|--------------------------------------------|
Composição de Rob Parissi
Colaboração e revisão:
  • Reginaldo Costa
7.698 exibições

0 comentários

Mostrar mais comentários

Conseguiu tocar?

1 Tocaram 0 Ainda não

Grave um vídeo tocando Play That Funky Music e mande pra gente!

00:00 / 00:00
outros vídeos desta música
repetir qualidade Automático
Outros vídeos desta música
00:00 / 00:00
Automático
Capítulos
  • Tocando a Música
  • Dicas Iniciais / Equipamentos
  • Configurações do Bass Pluss
  • Dicas sobre o Staccato
  • Dicas para a Introdução
  • Ensinando a Introdução
  • Dicas para a Primeira Parte
  • Primeira Parte - Parte 1 de 2
  • Primeira Parte - Parte 2 de 2
  • Dicas para o Primeiro Refrão
  • Refrão - Parte 1 de 2
  • Refrão - Parte 2 de 2
  • Dicas para as repetições e solo
  • Ensinando Solo
  • Dicas para as outras repetições e Quarta Intro
  • Quarta Introdução - Parte 1 de 2
  • Quarta Introdução - Parte 2 de 2
  • Dicas para o Quarto Refrão
  • Quarto Refrão - Parte 1 de 3
  • Quarto Refrão - Parte 2 de 3
  • Quarto Refrão - Parte 3 de 3
  • Dicas para possíveis variações na levada
  • Tocando a Variação de Levada
  • Primeira Levada - Parte 1 de 6
  • Primeira Levada - Parte 2 de 6
  • Segunda Levada - Parte 3 de 6
  • Primeira Levada - Parte 4 de 6
  • Terceira Levada - Parte 5 de 6
  • Primeira Levada - Parte 6 de 6
  • Encerramento
  • Ficha Técnica / Erros de Gravação

Cifra Club Pro

Aproveite o Cifra Club com benefícios exclusivos e sem anúncios
Cifra Club Pro
Aproveite o Cifra Club com benefícios exclusivos e sem anúncios
OK