Nocturne

Wild Nothing

Composição de: Jack Tatum
tom: D Afinação: E A D G B E
E|E|-------------------------------------------------------------------------------||
                             Nocturne - Wild Nothing
E|E|-------------------------------------------------------------------------------||
Tabbed by: DJ Charles
E-mail:

Tuning: Standard

Intro/chorus: 0:00 - 0:33

E|---------------------------------------------------------------------------|
B|---6-5----6-5----6-5----6-5----6-5-----------------------------------------|
G|-------5------5------5------5------5-44-5~--4-5----------------------------|
D|---------------------------------------------------------------------------|
A|---------------------------------------------------------------------------|
E|---------------------------------------------------------------------------|

E|---------------------------------------------------------------------------|
B|---------------------------------------------------------------------------|
G|---5-4-0--5-4-0--5-4-0--5-4-0--5-4-0--00-2~-0-2------| Repeat X2-------------|
D|---------------------------------------------------------------------------|
A|---------------------------------------------------------------------------|
E|---------------------------------------------------------------------------|

E|---------------------------------------------------------------------------|
B|---------------------------------------------------------------------------|
G|---| Run down to finish intro   2/9\7\5\2~-----------------------------------|
D|---------------------------------------------------------------------------|
A|---------------------------------------------------------------------------|
E|---------------------------------------------------------------------------|

"I know where to find you i know where you go" riff with delay/reverb 
(This is also played under the intro riff)

E|---------------------------------------------------------------------------|
B|---------------------------------12-12-12-12-12-12-12-12-12-12-------------|
G|---12-12-12-12-12-14-14-14-14-14-------------------------------------------|
D|---------------------------------------------------------------------------|
A|---------------------------------------------------------------------------|
E|---------------------------------------------------------------------------|

E|---------------------------------------------------------------------------|
B|---13-13-13-13-13-13-13-13-13-13-15-15-15-15-15-17-17-17-17-17| ------------|
G|---------------------------------------------------------------------------|
D|---------------------------------------------------------------------------|
A|---------------------------------------------------------------------------|
E|---------------------------------------------------------------------------|

E|---------------------------------------------------------------------------|
B|---------------------------------12-12-12-12-12-12-12-12-12-12-------------|
G|---12-12-12-12-12-14-14-14-14-14-------------------------------------------|
D|---------------------------------------------------------------------------|
A|---------------------------------------------------------------------------|
E|---------------------------------------------------------------------------|

E|---------------------------------------------------------------------------|
B|---13/15-15-15-15-15-15-15-15-15\13-13-13-13-13-13/17-17-17-17-17-17\15----|
G|---------------------------------------------------------------------------|
D|---------------------------------------------------------------------------|
A|---------------------------------------------------------------------------|
E|---------------------------------------------------------------------------|

E|---------------------------------------------------------------------------|
B|---15-15-15-15-15----------------------------------------------------------|
G|---------------------------------------------------------------------------|
D|---------------------------------------------------------------------------|
A|---------------------------------------------------------------------------|
E|---------------------------------------------------------------------------|

"You can have me" 1:05
E|---------------------------------------------------------------------------|
B|---------------------------------------------------------------------------|
G|---------------------------------12----------------------------------------|
D|------12-14----12-14----12-14-------14-------------------------------------|
A|---15-------15-------15-------15-------------------------------------------|
E|---------------------------------------------------------------------------|

Lead guitar part at the end of phrase 1:21

E|------------------------------------------------------------------------------|
B|--------10h12/13-12-10-------------------------------10-12-12/13-12-----10----|
G|---12-9----------------12-9-----------------------12-----------------12-----12|
D|----------------------------12-10-12-10-12b-10--------------------------------|
A|------------------------------------------------------------------------------|
E|------------------------------------------------------------------------------|

E|---------------------------------------------------------------------------|
B|---------------------------------------------------------------------------|
G|------------------------------12-------------------------------------------|
D|---10h12-10-10h12-10-10h12/14----14-12-10----------------------------------|
A|---------------------------------------------------------------------------|
E|---------------------------------------------------------------------------|

Interlude "you can have me" 3:12 These chords suit this part well

E|---------------------------------------------------------------------------|
B|---------------------------------------------------------------------------|
G|-----7---------------------------------------------------------------------|
D|---5-7-3----3/7------------(| Repeat as required)----------------------------|
A|---5-5-3----3/7------------------------------------------------------------|
E|---3---1----1/5------------------------------------------------------------|

Outro lead riff

E|---------------------------------------------------------------------------|
B|---6-5---------------------------------------------------------------------|
G|-------5p0-2~----0h2-2/7-----9-5-------------------------------------------|
D|---------------------------------------------------------------------------|
A|---------------------------------------------------------------------------|
E|---------------------------------------------------------------------------|

************************************

| /   slide up
| \   slide down
| h   hammer-on
| p   pull-off
| ~   vibrato
| +   harmonic
| x   Mute note
| b   Bend
| pb  Pre-bend
| br  Bend release
| pbr Pre-bend release
| brb Bend release bend
Página 1 / 1

Letras e título
Acordes e artista

resetar configurações
OK