Cifra Club

Dois Desconhecidos

Yasmin Santos

Cifra: Principal (violão e guitarra)
tom: F
[Intro] F  C9  Gm  Bb9

E|-------3-5-5-5-5p3-3~------------3-3-3-1-1-|
B|-5/6-6----------------5--3/5-5-6-----------|
G|-------------------------------------------|
D|-------------------------------------------|
A|-------------------------------------------|
E|-------------------------------------------|

E|-------------------------------------------|
B|-3/5-5-6--8-8-8-8-8p6-6~-------------------|
G|-------------------------------------------|
D|-------------------------------------------|
A|-------------------------------------------|
E|-------------------------------------------|

E|---5/6-5-6-5-------------------------------|
B|-3-----------6~----------------------------|
G|-------------------------------------------|
D|-------------------------------------------|
A|-------------------------------------------|
E|-------------------------------------------|

[Primeira Parte]

F            C9
  Se faz de bobo
               Gm
Mente que nem sente
                  Bb
Pensa que eu não sei

Que existe outra pessoa 
            Gm
Entre a gente

Quando eu te toco
                   Bb
Você nem me corresponde
                      
A tela do seu celular 
        F
Você esconde

Não tem assunto
                C9
E muito menos clima

[Pré-Refrão]

[Riff]

E|----5--------6/8-6-5---6------------------|
B|-/8---8-6------------8--------------------|
G|------------------------------------------|
D|------------------------------------------|
A|------------------------------------------|
E|------------------------------------------|

                Gm
Ai, ai, ai, ai, ai
 
Faz tempo que nós somos 
              Bb
Dois desconhecidos

Parece que eu divido 
              F
A cama com um amigo
                     
Pega seu rumo 
                 C9  F
E some da minha vida

[Refrão]


Tô terminando o que 
              C9
Você já terminou

Eu te amando
                       Gm
E cê amando um outro amor

Já foi o tempo 
                Bb
Em que eu era trouxa

Dá nem conta de mim
               F
E ainda arruma outra

Tô terminando o que 

              C9
Você já terminou

Eu te amando
                       Gm
E cê amando um outro amor

Cuidado que assumir 
               Bb                
Amante é um perigo

Quem com chifre fere
                   F
Com chifre será ferido

[Solo] C9  Gm  Dm  C9

[Pré-Refrão]

[Riff]

E|-6/8-6-5---6------------------------------|
B|---------8--------------------------------|
G|------------------------------------------|
D|------------------------------------------|
A|------------------------------------------|
E|------------------------------------------|

                Gm
Ai, ai, ai, ai, ai
 
Faz tempo que nós somos 
              Bb
Dois desconhecidos

Parece que eu divido 
              F
A cama com um amigo
                     
Pega seu rumo 

                 C9   F
E some da minha vida

[Refrão]


Tô terminando o que 
              C9
Você já terminou

Eu te amando
                       Gm
E cê amando um outro amor

Já foi o tempo 
                Bb
Em que eu era trouxa

Dá nem conta de mim
               F
E ainda arruma outra

Tô terminando o que 
              C9
Você já terminou

Eu te amando
                       Gm
E cê amando um outro amor

Cuidado que assumir 
               Bb                
Amante é um perigo

Quem com chifre fere
                   F
Com chifre será ferido

[Final] C9  Gm  Bb  F
00:00 / 00:00
Outros vídeos desta música
Repetir
Outros vídeos desta música
Composição de De Angelo / Gabriel Agra / Junior Gomes / Philipe Pancadinha
Colaboração e revisão:
  • Gustavo Vaz
  • Weigler Soares
458 exibições
    • ½ Tom
    • A
    • Bb
    • B
    • C
    • Db
    • D
    • Eb
    • E
    • F
    • F#
    • G
    • Ab
  • Adicionar à lista

    0 comentários

    Ver todos os comentários

    Conseguiu tocar?

    0 Tocaram 0 Ainda não

    Grave um vídeo tocando Dois Desconhecidos e nos envie!

    Entre para oCifra Club PRO

    Tenha acesso a benefícios exclusivos no App e no Site

    • Chega de anúncios

    • Prioridade de compra em lançamentos

    • Mais recursos no app do Afinador

    • Atendimento Prioritário

    • Descontos nos produtos Cifra Club

    • Ajude a produzir mais conteúdo

    00:00 / 00:00

    Cifra Club Pro

    Aproveite o Cifra Club com benefícios exclusivos e sem anúncios
    Cifra Club Pro
    Aproveite o Cifra Club com benefícios exclusivos e sem anúncios
    OK